  0
SECTION
  2
HEADER
  9
$EXTMIN
 10
-210.0
 20
-148.5
  9
$EXTMAX
 10
210.0
 20
148.5
  9
$PDMODE
 70
    32
  9
$PDSIZE
 40
1.5
  9
$LTSCALE
 40
10.0
  0
ENDSEC
  0
SECTION
  2
TABLES
  0
TABLE
  2
LTYPE
 70
    15
  0
LTYPE
  2
CONTINUOUS
 70
    64
  3
実線
 72
    65
 73
     0
 40
0.0
  0
LTYPE
  2
DASHED
 70
    64
  3
破線A
 72
    65
 73
     2
 40
0.6
 49
0.4
 49
-0.2
  0
LTYPE
  2
DASHEDX2
 70
    64
  3
破線B
 72
    65
 73
     2
 40
1.3
 49
0.9
 49
-0.4
  0
LTYPE
  2
DASHDOT
 70
    64
  3
１点鎖線A
 72
    65
 73
     4
 40
0.5375
 49
0.375
 49
-0.05
 49
0.0625
 49
-0.05
  0
LTYPE
  2
DASHDOTX2
 70
    64
  3
１点鎖線B
 72
    65
 73
     4
 40
1.075
 49
0.75
 49
-0.1
 49
0.125
 49
-0.1
  0
LTYPE
  2
DIVIDE2
 70
    64
  3
２点鎖線A
 72
    65
 73
     6
 40
0.5125
 49
0.3
 49
-0.0375
 49
0.05
 49
-0.0375
 49
0.05
 49
-0.0375
  0
LTYPE
  2
DIVIDE
 70
    64
  3
２点鎖線B
 72
    65
 73
     6
 40
1.05
 49
0.55
 49
-0.1
 49
0.1
 49
-0.1
 49
0.1
 49
-0.1
  0
LTYPE
  2
DOT
 70
    64
  3
点線A
 72
    65
 73
     2
 40
0.1125
 49
0.0625
 49
-0.05
  0
LTYPE
  2
DOTX2
 70
    64
  3
点線B
 72
    65
 73
     2
 40
0.275
 49
0.15
 49
-0.125
  0
LTYPE
  2
CONTINUOUS
 70
    64
  3
実線
 72
    65
 73
     0
 40
0.0
  0
LTYPE
  2
CONTINUOUS
 70
    64
  3
実線
 72
    65
 73
     0
 40
0.0
  0
LTYPE
  2
CONTINUOUS
 70
    64
  3
実線
 72
    65
 73
     0
 40
0.0
  0
LTYPE
  2
CONTINUOUS
 70
    64
  3
実線
 72
    65
 73
     0
 40
0.0
  0
LTYPE
  2
CONTINUOUS
 70
    64
  3
実線
 72
    65
 73
     0
 40
0.0
  0
LTYPE
  2
CONTINUOUS
 70
    64
  3
実線
 72
    65
 73
     0
 40
0.0
  0
ENDTAB
  0
TABLE
  2
LAYER
 70
    35
  0
LAYER
  2
通り芯
 70
     0
 62
    15
  6
CONTINUOUS
  0
LAYER
  2
補助線
 70
     0
 62
    16
  6
DOT
  0
LAYER
  2
躯体
 70
     0
 62
    31
  6
CONTINUOUS
  0
LAYER
  2
型材
 70
     0
 62
    32
  6
CONTINUOUS
  0
LAYER
  2
型材断面
 70
     0
 62
    47
  6
CONTINUOUS
  0
LAYER
  2
ガラス
 70
     0
 62
    48
  6
CONTINUOUS
  0
LAYER
  2
ゴム等
 70
     0
 62
    63
  6
CONTINUOUS
  0
LAYER
  2
ボルト／ビス
 70
     0
 62
    64
  6
CONTINUOUS
  0
LAYER
  2
文字
 70
     0
 62
    79
  6
CONTINUOUS
  0
LAYER
  2
寸法
 70
     0
 62
    80
  6
CONTINUOUS
  0
LAYER
  2
ﾊｯﾁﾝｸﾞ
 70
     0
 62
    95
  6
CONTINUOUS
  0
LAYER
  2
別途部材
 70
     0
 62
    96
  6
CONTINUOUS
  0
LAYER
  2
曲げ物
 70
     0
 62
   111
  6
CONTINUOUS
  0
LAYER
  2
鉄骨等
 70
     0
 62
   112
  6
CONTINUOUS
  0
LAYER
  2
St
 70
     0
 62
   127
  6
CONTINUOUS
  0
LAYER
  2
その他部品等
 70
     0
 62
   128
  6
CONTINUOUS
  0
LAYER
  2
ｶﾞｽｹｯﾄ
 70
     0
 62
   143
  6
CONTINUOUS
  0
LAYER
  2
ｽｹｯﾁ
 70
     0
 62
    14
  6
CONTINUOUS
  0
LAYER
  2
0
 70
     0
 62
    17
  6
CONTINUOUS
  0
LAYER
  2
1
 70
     0
 62
    30
  6
CONTINUOUS
  0
LAYER
  2
4
 70
     0
 62
    33
  6
CONTINUOUS
  0
LAYER
  2
ﾚｲﾔ3
 70
     0
 62
    46
  6
CONTINUOUS
  0
LAYER
  2
外形線
 70
     0
 62
    49
  6
CONTINUOUS
  0
LAYER
  2
部品
 70
     0
 62
    14
  6
CONTINUOUS
  0
LAYER
  2
サッシ芯
 70
     0
 62
    17
  6
DASHDOTX2
  0
LAYER
  2
寸法線
 70
     0
 62
    62
  6
CONTINUOUS
  0
LAYER
  2
姿図外形線
 70
     0
 62
    65
  6
CONTINUOUS
  0
LAYER
  2
姿補助線
 70
     0
 62
    30
  6
CONTINUOUS
  0
LAYER
  2
透視線
 70
     0
 62
    78
  6
DOT
  0
LAYER
  2
用紙
 70
     0
 62
    81
  6
CONTINUOUS
  0
LAYER
  2
実線図枠
 70
     0
 62
    94
  6
CONTINUOUS
  0
LAYER
  2
補助図枠
 70
     0
 62
    97
  6
CONTINUOUS
  0
LAYER
  2
建具記号
 70
     0
 62
   110
  6
CONTINUOUS
  0
LAYER
  2
補助文字
 70
     0
 62
   113
  6
CONTINUOUS
  0
LAYER
  2
SUNPO
 70
     0
 62
     6
  6
CONTINUOUS
  0
ENDTAB
  0
TABLE
  2
STYLE
 70
    10
  0
STYLE
  2
STANDARD
 70
     0
 40
1.0
 41
1.0
 42
1.0
 50
0.0
 71
     0
  3
TXT
  4
BIGFONT
  0
STYLE
  2
TATE
 70
     4
 40
1.0
 41
1.0
 42
1.0
 50
0.0
 71
     0
  3
TXT
  4
BIGFONT
  0
STYLE
  2
TextStyle03
 70
     0
 40
1.0
 41
1.0
 42
1.0
 50
0.0
 71
     0
  3
MONOTXT
  4
BIGFONT
  0
STYLE
  2
TextStyle04
 70
     0
 40
1.0
 41
1.0
 42
1.0
 50
0.0
 71
     0
  3
MONOTXT
  4
BIGFONT
  0
STYLE
  2
TextStyle05
 70
     0
 40
1.0
 41
1.0
 42
1.0
 50
0.0
 71
     0
  3
MONOTXT
  4
BIGFONT
  0
STYLE
  2
TextStyle06
 70
     0
 40
1.0
 41
1.0
 42
1.0
 50
0.0
 71
     0
  3
MONOTXT
  4
BIGFONT
  0
STYLE
  2
TextStyle07
 70
     0
 40
1.0
 41
1.0
 42
1.0
 50
0.0
 71
     0
  3
MONOTXT
  4
BIGFONT
  0
STYLE
  2
TextStyle08
 70
     0
 40
1.0
 41
1.0
 42
1.0
 50
0.0
 71
     0
  3
MONOTXT
  4
BIGFONT
  0
STYLE
  2
TextStyle09
 70
     0
 40
1.0
 41
1.0
 42
1.0
 50
0.0
 71
     0
  3
MONOTXT
  4
BIGFONT
  0
STYLE
  2
TextStyle10
 70
     0
 40
1.0
 41
1.0
 42
1.0
 50
0.0
 71
     0
  3
MONOTXT
  4
BIGFONT
  0
ENDTAB
  0
ENDSEC
  0
SECTION
  2
BLOCKS
  0
BLOCK
  2
*GRP_0001
 70
    65
 10
0.0
 20
0.0
  0
LINE
  8
型材断面
  6
CONTINUOUS
 10
195.0
 20
133.5
 11
195.0
 21
-133.5
  0
LINE
  8
型材断面
  6
CONTINUOUS
 10
195.0
 20
-133.5
 11
-185.0
 21
-133.5
  0
LINE
  8
型材断面
  6
CONTINUOUS
 10
-185.0
 20
-133.5
 11
-185.0
 21
133.5
  0
LINE
  8
型材断面
  6
CONTINUOUS
 10
195.0
 20
133.5
 11
-185.0
 21
133.5
  0
LINE
  8
型材断面
  6
CONTINUOUS
 10
145.0
 20
-133.5
 11
145.0
 21
-118.5
  0
LINE
  8
型材断面
  6
CONTINUOUS
 10
195.0
 20
-118.5
 11
145.0
 21
-118.5
  0
ENDBLK
  0
BLOCK
  2
*GRP_0002
 70
    65
 10
0.0
 20
0.0
  0
LINE
  8
ボルト／ビス
  6
CONTINUOUS
 10
-20.412432
 20
-85.075328
 11
-20.412432
 21
-84.975328
  0
LINE
  8
ボルト／ビス
  6
CONTINUOUS
 10
-20.412432
 20
-84.975328
 11
-21.51243
 21
-84.975328
  0
LINE
  8
ボルト／ビス
  6
CONTINUOUS
 10
-21.51243
 20
-84.975328
 11
-21.51243
 21
-85.075325
  0
LINE
  8
ボルト／ビス
  6
CONTINUOUS
 10
-20.412432
 20
-85.075328
 11
-21.51243
 21
-85.075325
  0
LINE
  8
ボルト／ビス
  6
CONTINUOUS
 10
-20.512432
 20
-84.925328
 11
-20.512432
 21
-84.975328
  0
LINE
  8
ボルト／ビス
  6
CONTINUOUS
 10
-20.512432
 20
-84.925328
 11
-21.41243
 21
-84.925325
  0
LINE
  8
ボルト／ビス
  6
CONTINUOUS
 10
-21.41243
 20
-84.925325
 11
-21.41243
 21
-84.975325
  0
LINE
  8
ボルト／ビス
  6
CONTINUOUS
 62
    64
 10
-20.721868
 20
-84.625325
 11
-20.673758
 21
-84.642838
  0
ARC
  8
ボルト／ビス
  6
CONTINUOUS
 62
    64
 10
-20.745927
 20
-84.782798
 40
0.157467
 50
89.999978
 51
117.278011
  0
ARC
  8
ボルト／ビス
  6
CONTINUOUS
 62
    64
 10
-20.962433
 20
-85.228933
 40
0.603602
 50
76.164993
 51
103.834976
  0
LINE
  8
ボルト／ビス
  6
CONTINUOUS
 62
    64
 10
-21.202992
 20
-84.625325
 11
-21.251108
 21
-84.642838
  0
ARC
  8
ボルト／ビス
  6
CONTINUOUS
 62
    64
 10
-21.178939
 20
-84.782798
 40
0.157467
 50
62.721945
 51
89.999978
  0
LINE
  8
ボルト／ビス
  6
CONTINUOUS
 62
    64
 10
-20.721868
 20
-84.625325
 11
-21.202992
 21
-84.625325
  0
LINE
  8
ボルト／ビス
  6
CONTINUOUS
 62
    64
 10
-21.251108
 20
-84.642838
 11
-21.251108
 21
-84.825325
  0
LINE
  8
ボルト／ビス
  6
CONTINUOUS
 62
    64
 10
-21.106768
 20
-84.64284
 11
-21.106768
 21
-84.825328
  0
LINE
  8
ボルト／ビス
  6
CONTINUOUS
 62
    64
 10
-20.673758
 20
-84.642838
 11
-20.673758
 21
-84.825325
  0
LINE
  8
ボルト／ビス
  6
CONTINUOUS
 62
    64
 10
-20.818095
 20
-84.64284
 11
-20.818095
 21
-84.825325
  0
LINE
  8
ボルト／ビス
  6
CONTINUOUS
 10
-20.673758
 20
-84.825325
 11
-21.251108
 21
-84.825325
  0
LINE
  8
ボルト／ビス
  6
CONTINUOUS
 10
-20.662432
 20
-84.825325
 11
-20.662432
 21
-84.925328
  0
LINE
  8
ボルト／ビス
  6
CONTINUOUS
 10
-20.662432
 20
-84.825325
 11
-21.26243
 21
-84.825325
  0
LINE
  8
ボルト／ビス
  6
CONTINUOUS
 10
-21.26243
 20
-84.825325
 11
-21.26243
 21
-84.925328
  0
LINE
  8
ボルト／ビス
  6
CONTINUOUS
 62
    64
 10
-21.11243
 20
-85.075325
 11
-21.11243
 21
-85.075328
  0
ENDBLK
  0
BLOCK
  2
*GRP_0003
 70
    65
 10
0.0
 20
0.0
  0
LINE
  8
ボルト／ビス
  6
CONTINUOUS
 10
-88.512438
 20
-85.075328
 11
-88.512438
 21
-84.975328
  0
LINE
  8
ボルト／ビス
  6
CONTINUOUS
 10
-88.512438
 20
-84.975328
 11
-87.41244
 21
-84.975328
  0
LINE
  8
ボルト／ビス
  6
CONTINUOUS
 10
-87.41244
 20
-84.975328
 11
-87.41244
 21
-85.075325
  0
LINE
  8
ボルト／ビス
  6
CONTINUOUS
 10
-88.512438
 20
-85.075328
 11
-87.41244
 21
-85.075325
  0
LINE
  8
ボルト／ビス
  6
CONTINUOUS
 10
-88.412438
 20
-84.925328
 11
-88.412438
 21
-84.975328
  0
LINE
  8
ボルト／ビス
  6
CONTINUOUS
 10
-88.412438
 20
-84.925328
 11
-87.51244
 21
-84.925325
  0
LINE
  8
ボルト／ビス
  6
CONTINUOUS
 10
-87.51244
 20
-84.925325
 11
-87.51244
 21
-84.975325
  0
LINE
  8
ボルト／ビス
  6
CONTINUOUS
 62
    64
 10
-88.203002
 20
-84.625325
 11
-88.251113
 21
-84.642838
  0
ARC
  8
ボルト／ビス
  6
CONTINUOUS
 62
    64
 10
-88.178943
 20
-84.782798
 40
0.157467
 50
62.721989
 51
90.000022
  0
ARC
  8
ボルト／ビス
  6
CONTINUOUS
 62
    64
 10
-87.962437
 20
-85.228933
 40
0.603602
 50
76.165024
 51
103.835007
  0
LINE
  8
ボルト／ビス
  6
CONTINUOUS
 62
    64
 10
-87.721878
 20
-84.625325
 11
-87.673762
 21
-84.642838
  0
ARC
  8
ボルト／ビス
  6
CONTINUOUS
 62
    64
 10
-87.745931
 20
-84.782798
 40
0.157467
 50
90.000022
 51
117.278055
  0
LINE
  8
ボルト／ビス
  6
CONTINUOUS
 62
    64
 10
-88.203002
 20
-84.625325
 11
-87.721878
 21
-84.625325
  0
LINE
  8
ボルト／ビス
  6
CONTINUOUS
 62
    64
 10
-87.673762
 20
-84.642838
 11
-87.673762
 21
-84.825325
  0
LINE
  8
ボルト／ビス
  6
CONTINUOUS
 62
    64
 10
-87.818102
 20
-84.64284
 11
-87.818102
 21
-84.825328
  0
LINE
  8
ボルト／ビス
  6
CONTINUOUS
 62
    64
 10
-88.251113
 20
-84.642838
 11
-88.251113
 21
-84.825325
  0
LINE
  8
ボルト／ビス
  6
CONTINUOUS
 62
    64
 10
-88.106775
 20
-84.64284
 11
-88.106775
 21
-84.825325
  0
LINE
  8
ボルト／ビス
  6
CONTINUOUS
 10
-88.251113
 20
-84.825325
 11
-87.673762
 21
-84.825325
  0
LINE
  8
ボルト／ビス
  6
CONTINUOUS
 10
-88.262438
 20
-84.825325
 11
-88.262438
 21
-84.925328
  0
LINE
  8
ボルト／ビス
  6
CONTINUOUS
 10
-88.262438
 20
-84.825325
 11
-87.66244
 21
-84.825325
  0
LINE
  8
ボルト／ビス
  6
CONTINUOUS
 10
-87.66244
 20
-84.825325
 11
-87.66244
 21
-84.925328
  0
LINE
  8
ボルト／ビス
  6
CONTINUOUS
 62
    64
 10
-87.81244
 20
-85.075325
 11
-87.81244
 21
-85.075328
  0
ENDBLK
  0
BLOCK
  2
*GRP_0004
 70
    65
 10
0.0
 20
0.0
  0
INSERT
  2
*GRP_0029
  8
補助線
  6
CONTINUOUS
 10
0.0
 20
0.0
  0
LINE
  8
ボルト／ビス
  6
CONTINUOUS
 10
-46.962435
 20
75.286763
 11
-47.212435
 21
75.142425
  0
LINE
  8
ボルト／ビス
  6
CONTINUOUS
 10
-46.962435
 20
75.286763
 11
-46.712435
 21
75.142425
  0
LINE
  8
ボルト／ビス
  6
CONTINUOUS
 10
-47.212435
 20
74.85375
 11
-46.962435
 21
74.709412
  0
LINE
  8
ボルト／ビス
  6
CONTINUOUS
 10
-46.712435
 20
74.85375
 11
-46.962435
 21
74.709412
  0
CIRCLE
  8
ボルト／ビス
  6
CONTINUOUS
 10
-46.962435
 20
74.998087
 40
0.25
  0
LINE
  8
ボルト／ビス
  6
CONTINUOUS
 10
-46.712435
 20
75.142425
 11
-46.712435
 21
74.85375
  0
LINE
  8
ボルト／ビス
  6
CONTINUOUS
 10
-47.212435
 20
74.85375
 11
-47.212435
 21
75.142425
  0
ENDBLK
  0
BLOCK
  2
*GRP_0005
 70
    65
 10
0.0
 20
0.0
  0
INSERT
  2
*GRP_0030
  8
補助線
  6
CONTINUOUS
 10
0.0
 20
0.0
  0
LINE
  8
ボルト／ビス
  6
CONTINUOUS
 10
-31.962435
 20
75.286763
 11
-32.212435
 21
75.142425
  0
LINE
  8
ボルト／ビス
  6
CONTINUOUS
 10
-31.962435
 20
75.286763
 11
-31.712435
 21
75.142425
  0
LINE
  8
ボルト／ビス
  6
CONTINUOUS
 10
-32.212435
 20
74.85375
 11
-31.962435
 21
74.709412
  0
LINE
  8
ボルト／ビス
  6
CONTINUOUS
 10
-31.712435
 20
74.85375
 11
-31.962435
 21
74.709412
  0
CIRCLE
  8
ボルト／ビス
  6
CONTINUOUS
 10
-31.962435
 20
74.998087
 40
0.25
  0
LINE
  8
ボルト／ビス
  6
CONTINUOUS
 10
-31.712435
 20
75.142425
 11
-31.712435
 21
74.85375
  0
LINE
  8
ボルト／ビス
  6
CONTINUOUS
 10
-32.212435
 20
74.85375
 11
-32.212435
 21
75.142425
  0
ENDBLK
  0
BLOCK
  2
*GRP_0006
 70
    65
 10
0.0
 20
0.0
  0
INSERT
  2
*GRP_0031
  8
補助線
  6
CONTINUOUS
 10
0.0
 20
0.0
  0
LINE
  8
ボルト／ビス
  6
CONTINUOUS
 10
-61.962435
 20
75.286763
 11
-61.712435
 21
75.142425
  0
LINE
  8
ボルト／ビス
  6
CONTINUOUS
 10
-61.962435
 20
75.286763
 11
-62.212435
 21
75.142425
  0
LINE
  8
ボルト／ビス
  6
CONTINUOUS
 10
-61.712435
 20
74.85375
 11
-61.962435
 21
74.709412
  0
LINE
  8
ボルト／ビス
  6
CONTINUOUS
 10
-62.212435
 20
74.85375
 11
-61.962435
 21
74.709412
  0
CIRCLE
  8
ボルト／ビス
  6
CONTINUOUS
 10
-61.962435
 20
74.998087
 40
0.25
  0
LINE
  8
ボルト／ビス
  6
CONTINUOUS
 10
-62.212435
 20
75.142425
 11
-62.212435
 21
74.85375
  0
LINE
  8
ボルト／ビス
  6
CONTINUOUS
 10
-61.712435
 20
74.85375
 11
-61.712435
 21
75.142425
  0
ENDBLK
  0
BLOCK
  2
*GRP_0007
 70
    65
 10
0.0
 20
0.0
  0
INSERT
  2
*GRP_0032
  8
補助線
  6
CONTINUOUS
 10
0.0
 20
0.0
  0
LINE
  8
ボルト／ビス
  6
CONTINUOUS
 10
-76.962435
 20
75.286763
 11
-76.712435
 21
75.142425
  0
LINE
  8
ボルト／ビス
  6
CONTINUOUS
 10
-76.962435
 20
75.286763
 11
-77.212435
 21
75.142425
  0
LINE
  8
ボルト／ビス
  6
CONTINUOUS
 10
-76.712435
 20
74.85375
 11
-76.962435
 21
74.709412
  0
LINE
  8
ボルト／ビス
  6
CONTINUOUS
 10
-77.212435
 20
74.85375
 11
-76.962435
 21
74.709412
  0
CIRCLE
  8
ボルト／ビス
  6
CONTINUOUS
 10
-76.962435
 20
74.998087
 40
0.25
  0
LINE
  8
ボルト／ビス
  6
CONTINUOUS
 10
-77.212435
 20
75.142425
 11
-77.212435
 21
74.85375
  0
LINE
  8
ボルト／ビス
  6
CONTINUOUS
 10
-76.712435
 20
74.85375
 11
-76.712435
 21
75.142425
  0
ENDBLK
  0
BLOCK
  2
*GRP_0008
 70
    65
 10
0.0
 20
0.0
  0
INSERT
  2
*GRP_0033
  8
補助線
  6
CONTINUOUS
 10
0.0
 20
0.0
  0
LINE
  8
ボルト／ビス
  6
CONTINUOUS
 10
-88.251108
 20
48.99809
 11
-88.10677
 21
48.74809
  0
LINE
  8
ボルト／ビス
  6
CONTINUOUS
 10
-88.251108
 20
48.99809
 11
-88.10677
 21
49.24809
  0
LINE
  8
ボルト／ビス
  6
CONTINUOUS
 10
-87.818095
 20
48.74809
 11
-87.673758
 21
48.99809
  0
LINE
  8
ボルト／ビス
  6
CONTINUOUS
 10
-87.818095
 20
49.24809
 11
-87.673758
 21
48.99809
  0
CIRCLE
  8
ボルト／ビス
  6
CONTINUOUS
 10
-87.962432
 20
48.99809
 40
0.25
  0
LINE
  8
ボルト／ビス
  6
CONTINUOUS
 10
-88.10677
 20
49.24809
 11
-87.818095
 21
49.24809
  0
LINE
  8
ボルト／ビス
  6
CONTINUOUS
 10
-87.818095
 20
48.74809
 11
-88.10677
 21
48.74809
  0
ENDBLK
  0
BLOCK
  2
*GRP_0009
 70
    65
 10
0.0
 20
0.0
  0
INSERT
  2
*GRP_0034
  8
補助線
  6
CONTINUOUS
 10
0.0
 20
0.0
  0
LINE
  8
ボルト／ビス
  6
CONTINUOUS
 10
-88.251108
 20
63.99809
 11
-88.10677
 21
63.74809
  0
LINE
  8
ボルト／ビス
  6
CONTINUOUS
 10
-88.251108
 20
63.99809
 11
-88.10677
 21
64.24809
  0
LINE
  8
ボルト／ビス
  6
CONTINUOUS
 10
-87.818095
 20
63.74809
 11
-87.673758
 21
63.99809
  0
LINE
  8
ボルト／ビス
  6
CONTINUOUS
 10
-87.818095
 20
64.24809
 11
-87.673758
 21
63.99809
  0
CIRCLE
  8
ボルト／ビス
  6
CONTINUOUS
 10
-87.962432
 20
63.99809
 40
0.25
  0
LINE
  8
ボルト／ビス
  6
CONTINUOUS
 10
-88.10677
 20
64.24809
 11
-87.818095
 21
64.24809
  0
LINE
  8
ボルト／ビス
  6
CONTINUOUS
 10
-87.818095
 20
63.74809
 11
-88.10677
 21
63.74809
  0
ENDBLK
  0
BLOCK
  2
*GRP_0010
 70
    65
 10
0.0
 20
0.0
  0
INSERT
  2
*GRP_0035
  8
補助線
  6
CONTINUOUS
 10
0.0
 20
0.0
  0
LINE
  8
ボルト／ビス
  6
CONTINUOUS
 10
-88.251108
 20
33.998085
 11
-88.10677
 21
34.248085
  0
LINE
  8
ボルト／ビス
  6
CONTINUOUS
 10
-88.251108
 20
33.998085
 11
-88.10677
 21
33.748085
  0
LINE
  8
ボルト／ビス
  6
CONTINUOUS
 10
-87.818095
 20
34.248085
 11
-87.673758
 21
33.998085
  0
LINE
  8
ボルト／ビス
  6
CONTINUOUS
 10
-87.818095
 20
33.748085
 11
-87.673758
 21
33.998085
  0
CIRCLE
  8
ボルト／ビス
  6
CONTINUOUS
 10
-87.962432
 20
33.998085
 40
0.25
  0
LINE
  8
ボルト／ビス
  6
CONTINUOUS
 10
-88.10677
 20
33.748085
 11
-87.818095
 21
33.748085
  0
LINE
  8
ボルト／ビス
  6
CONTINUOUS
 10
-87.818095
 20
34.248085
 11
-88.10677
 21
34.248085
  0
ENDBLK
  0
BLOCK
  2
*GRP_0011
 70
    65
 10
0.0
 20
0.0
  0
INSERT
  2
*GRP_0036
  8
補助線
  6
CONTINUOUS
 10
0.0
 20
0.0
  0
LINE
  8
ボルト／ビス
  6
CONTINUOUS
 10
-88.251108
 20
18.998085
 11
-88.10677
 21
19.248085
  0
LINE
  8
ボルト／ビス
  6
CONTINUOUS
 10
-88.251108
 20
18.998085
 11
-88.10677
 21
18.748085
  0
LINE
  8
ボルト／ビス
  6
CONTINUOUS
 10
-87.818095
 20
19.248085
 11
-87.673758
 21
18.998085
  0
LINE
  8
ボルト／ビス
  6
CONTINUOUS
 10
-87.818095
 20
18.748085
 11
-87.673758
 21
18.998085
  0
CIRCLE
  8
ボルト／ビス
  6
CONTINUOUS
 10
-87.962432
 20
18.998085
 40
0.25
  0
LINE
  8
ボルト／ビス
  6
CONTINUOUS
 10
-88.10677
 20
18.748085
 11
-87.818095
 21
18.748085
  0
LINE
  8
ボルト／ビス
  6
CONTINUOUS
 10
-87.818095
 20
19.248085
 11
-88.10677
 21
19.248085
  0
ENDBLK
  0
BLOCK
  2
*GRP_0012
 70
    65
 10
0.0
 20
0.0
  0
INSERT
  2
*GRP_0037
  8
補助線
  6
CONTINUOUS
 10
0.0
 20
0.0
  0
LINE
  8
ボルト／ビス
  6
CONTINUOUS
 10
-61.962438
 20
7.709415
 11
-61.712438
 21
7.853752
  0
LINE
  8
ボルト／ビス
  6
CONTINUOUS
 10
-61.962438
 20
7.709415
 11
-62.212438
 21
7.853752
  0
LINE
  8
ボルト／ビス
  6
CONTINUOUS
 10
-61.712438
 20
8.142427
 11
-61.962438
 21
8.286765
  0
LINE
  8
ボルト／ビス
  6
CONTINUOUS
 10
-62.212438
 20
8.142427
 11
-61.962438
 21
8.286765
  0
CIRCLE
  8
ボルト／ビス
  6
CONTINUOUS
 10
-61.962438
 20
7.99809
 40
0.25
  0
LINE
  8
ボルト／ビス
  6
CONTINUOUS
 10
-62.212438
 20
7.853752
 11
-62.212438
 21
8.142427
  0
LINE
  8
ボルト／ビス
  6
CONTINUOUS
 10
-61.712438
 20
8.142427
 11
-61.712438
 21
7.853752
  0
ENDBLK
  0
BLOCK
  2
*GRP_0013
 70
    65
 10
0.0
 20
0.0
  0
INSERT
  2
*GRP_0038
  8
補助線
  6
CONTINUOUS
 10
0.0
 20
0.0
  0
LINE
  8
ボルト／ビス
  6
CONTINUOUS
 10
-76.962438
 20
7.709415
 11
-76.712438
 21
7.853752
  0
LINE
  8
ボルト／ビス
  6
CONTINUOUS
 10
-76.962438
 20
7.709415
 11
-77.212438
 21
7.853752
  0
LINE
  8
ボルト／ビス
  6
CONTINUOUS
 10
-76.712438
 20
8.142427
 11
-76.962438
 21
8.286765
  0
LINE
  8
ボルト／ビス
  6
CONTINUOUS
 10
-77.212438
 20
8.142427
 11
-76.962438
 21
8.286765
  0
CIRCLE
  8
ボルト／ビス
  6
CONTINUOUS
 10
-76.962438
 20
7.99809
 40
0.25
  0
LINE
  8
ボルト／ビス
  6
CONTINUOUS
 10
-77.212438
 20
7.853752
 11
-77.212438
 21
8.142427
  0
LINE
  8
ボルト／ビス
  6
CONTINUOUS
 10
-76.712438
 20
8.142427
 11
-76.712438
 21
7.853752
  0
ENDBLK
  0
BLOCK
  2
*GRP_0014
 70
    65
 10
0.0
 20
0.0
  0
INSERT
  2
*GRP_0039
  8
補助線
  6
CONTINUOUS
 10
0.0
 20
0.0
  0
LINE
  8
ボルト／ビス
  6
CONTINUOUS
 10
-46.962432
 20
7.709415
 11
-47.212432
 21
7.853752
  0
LINE
  8
ボルト／ビス
  6
CONTINUOUS
 10
-46.962432
 20
7.709415
 11
-46.712432
 21
7.853752
  0
LINE
  8
ボルト／ビス
  6
CONTINUOUS
 10
-47.212432
 20
8.142427
 11
-46.962432
 21
8.286765
  0
LINE
  8
ボルト／ビス
  6
CONTINUOUS
 10
-46.712432
 20
8.142427
 11
-46.962432
 21
8.286765
  0
CIRCLE
  8
ボルト／ビス
  6
CONTINUOUS
 10
-46.962432
 20
7.99809
 40
0.25
  0
LINE
  8
ボルト／ビス
  6
CONTINUOUS
 10
-46.712432
 20
7.853752
 11
-46.712432
 21
8.142427
  0
LINE
  8
ボルト／ビス
  6
CONTINUOUS
 10
-47.212432
 20
8.142427
 11
-47.212432
 21
7.853752
  0
ENDBLK
  0
BLOCK
  2
*GRP_0015
 70
    65
 10
0.0
 20
0.0
  0
INSERT
  2
*GRP_0040
  8
補助線
  6
CONTINUOUS
 10
0.0
 20
0.0
  0
LINE
  8
ボルト／ビス
  6
CONTINUOUS
 10
-31.962432
 20
7.709415
 11
-32.212432
 21
7.853752
  0
LINE
  8
ボルト／ビス
  6
CONTINUOUS
 10
-31.962432
 20
7.709415
 11
-31.712432
 21
7.853752
  0
LINE
  8
ボルト／ビス
  6
CONTINUOUS
 10
-32.212432
 20
8.142427
 11
-31.962432
 21
8.286765
  0
LINE
  8
ボルト／ビス
  6
CONTINUOUS
 10
-31.712432
 20
8.142427
 11
-31.962432
 21
8.286765
  0
CIRCLE
  8
ボルト／ビス
  6
CONTINUOUS
 10
-31.962432
 20
7.99809
 40
0.25
  0
LINE
  8
ボルト／ビス
  6
CONTINUOUS
 10
-31.712432
 20
7.853752
 11
-31.712432
 21
8.142427
  0
LINE
  8
ボルト／ビス
  6
CONTINUOUS
 10
-32.212432
 20
8.142427
 11
-32.212432
 21
7.853752
  0
ENDBLK
  0
BLOCK
  2
*GRP_0016
 70
    65
 10
0.0
 20
0.0
  0
INSERT
  2
*GRP_0041
  8
補助線
  6
CONTINUOUS
 10
0.0
 20
0.0
  0
LINE
  8
ボルト／ビス
  6
CONTINUOUS
 10
-20.67376
 20
33.998087
 11
-20.818098
 21
34.248087
  0
LINE
  8
ボルト／ビス
  6
CONTINUOUS
 10
-20.67376
 20
33.998087
 11
-20.818098
 21
33.748087
  0
LINE
  8
ボルト／ビス
  6
CONTINUOUS
 10
-21.106772
 20
34.248087
 11
-21.25111
 21
33.998087
  0
LINE
  8
ボルト／ビス
  6
CONTINUOUS
 10
-21.106772
 20
33.748087
 11
-21.25111
 21
33.998087
  0
CIRCLE
  8
ボルト／ビス
  6
CONTINUOUS
 10
-20.962435
 20
33.998087
 40
0.25
  0
LINE
  8
ボルト／ビス
  6
CONTINUOUS
 10
-20.818098
 20
33.748087
 11
-21.106772
 21
33.748087
  0
LINE
  8
ボルト／ビス
  6
CONTINUOUS
 10
-21.106772
 20
34.248087
 11
-20.818098
 21
34.248087
  0
ENDBLK
  0
BLOCK
  2
*GRP_0017
 70
    65
 10
0.0
 20
0.0
  0
INSERT
  2
*GRP_0042
  8
補助線
  6
CONTINUOUS
 10
0.0
 20
0.0
  0
LINE
  8
ボルト／ビス
  6
CONTINUOUS
 10
-20.67376
 20
18.998087
 11
-20.818098
 21
19.248087
  0
LINE
  8
ボルト／ビス
  6
CONTINUOUS
 10
-20.67376
 20
18.998087
 11
-20.818098
 21
18.748087
  0
LINE
  8
ボルト／ビス
  6
CONTINUOUS
 10
-21.106772
 20
19.248087
 11
-21.25111
 21
18.998087
  0
LINE
  8
ボルト／ビス
  6
CONTINUOUS
 10
-21.106772
 20
18.748087
 11
-21.25111
 21
18.998087
  0
CIRCLE
  8
ボルト／ビス
  6
CONTINUOUS
 10
-20.962435
 20
18.998087
 40
0.25
  0
LINE
  8
ボルト／ビス
  6
CONTINUOUS
 10
-20.818098
 20
18.748087
 11
-21.106772
 21
18.748087
  0
LINE
  8
ボルト／ビス
  6
CONTINUOUS
 10
-21.106772
 20
19.248087
 11
-20.818098
 21
19.248087
  0
ENDBLK
  0
BLOCK
  2
*GRP_0018
 70
    65
 10
0.0
 20
0.0
  0
INSERT
  2
*GRP_0043
  8
補助線
  6
CONTINUOUS
 10
0.0
 20
0.0
  0
LINE
  8
ボルト／ビス
  6
CONTINUOUS
 10
-20.67376
 20
48.998087
 11
-20.818098
 21
48.748087
  0
LINE
  8
ボルト／ビス
  6
CONTINUOUS
 10
-20.67376
 20
48.998087
 11
-20.818098
 21
49.248087
  0
LINE
  8
ボルト／ビス
  6
CONTINUOUS
 10
-21.106772
 20
48.748087
 11
-21.25111
 21
48.998087
  0
LINE
  8
ボルト／ビス
  6
CONTINUOUS
 10
-21.106772
 20
49.248087
 11
-21.25111
 21
48.998087
  0
CIRCLE
  8
ボルト／ビス
  6
CONTINUOUS
 10
-20.962435
 20
48.998087
 40
0.25
  0
LINE
  8
ボルト／ビス
  6
CONTINUOUS
 10
-20.818098
 20
49.248087
 11
-21.106772
 21
49.248087
  0
LINE
  8
ボルト／ビス
  6
CONTINUOUS
 10
-21.106772
 20
48.748087
 11
-20.818098
 21
48.748087
  0
ENDBLK
  0
BLOCK
  2
*GRP_0019
 70
    65
 10
0.0
 20
0.0
  0
INSERT
  2
*GRP_0044
  8
補助線
  6
CONTINUOUS
 10
0.0
 20
0.0
  0
LINE
  8
ボルト／ビス
  6
CONTINUOUS
 10
-20.67376
 20
63.998087
 11
-20.818098
 21
63.748087
  0
LINE
  8
ボルト／ビス
  6
CONTINUOUS
 10
-20.67376
 20
63.998087
 11
-20.818098
 21
64.248087
  0
LINE
  8
ボルト／ビス
  6
CONTINUOUS
 10
-21.106772
 20
63.748087
 11
-21.25111
 21
63.998087
  0
LINE
  8
ボルト／ビス
  6
CONTINUOUS
 10
-21.106772
 20
64.248087
 11
-21.25111
 21
63.998087
  0
CIRCLE
  8
ボルト／ビス
  6
CONTINUOUS
 10
-20.962435
 20
63.998087
 40
0.25
  0
LINE
  8
ボルト／ビス
  6
CONTINUOUS
 10
-20.818098
 20
64.248087
 11
-21.106772
 21
64.248087
  0
LINE
  8
ボルト／ビス
  6
CONTINUOUS
 10
-21.106772
 20
63.748087
 11
-20.818098
 21
63.748087
  0
ENDBLK
  0
BLOCK
  2
*DIM_0020
 70
    65
 10
0.0
 20
0.0
  0
LINE
  8
寸法
  6
CONTINUOUS
 10
-18.052215
 20
-82.625075
 11
-18.052215
 21
-57.49818
  0
LINE
  8
寸法
  6
CONTINUOUS
 10
-21.962435
 20
-57.49818
 11
-18.052215
 21
-57.49818
  0
POINT
  8
寸法
 10
-21.962435
 20
-57.49818
  0
POINT
  8
寸法
 10
-18.052215
 20
-57.49818
  0
TEXT
  7
TextStyle03
  8
寸法
  6
CONTINUOUS
 10
-16.55625
 20
-57.125
  1
78.2
 40
3.0
 72
     5
 11
-9.99375
 21
-57.125
  0
ENDBLK
  0
BLOCK
  2
*DIM_0021
 70
    65
 10
0.0
 20
0.0
  0
LINE
  8
寸法
  6
CONTINUOUS
 10
-13.052215
 20
-88.375075
 11
0.084173
 21
-88.375075
  0
LINE
  8
寸法
  6
CONTINUOUS
 10
-16.962435
 20
-84.32533
 11
0.084173
 21
-84.32533
  0
LINE
  8
寸法
  6
CONTINUOUS
 10
0.084173
 20
-88.375075
 11
0.084173
 21
-84.32533
  0
POINT
  8
寸法
 10
0.084173
 20
-88.375075
  0
POINT
  8
寸法
 10
0.084173
 20
-84.32533
  0
TEXT
  7
TextStyle03
  8
寸法
  6
CONTINUOUS
 10
3.45
 20
-87.94375
  1
81
 40
3.0
 50
90.0
 72
     5
 11
3.45
 21
-84.75625
  0
ENDBLK
  0
BLOCK
  2
*DIM_0022
 70
    65
 10
0.0
 20
0.0
  0
LINE
  8
寸法
  6
CONTINUOUS
 10
-90.872655
 20
-82.625075
 11
-90.872655
 21
-57.49818
  0
LINE
  8
寸法
  6
CONTINUOUS
 10
-86.962435
 20
-57.49818
 11
-90.872655
 21
-57.49818
  0
POINT
  8
寸法
 10
-86.962435
 20
-57.49818
  0
POINT
  8
寸法
 10
-90.872655
 20
-57.49818
  0
TEXT
  7
TextStyle03
  8
寸法
  6
CONTINUOUS
 10
-98.95625
 20
-57.125
  1
78.2
 40
3.0
 72
     5
 11
-92.39375
 21
-57.125
  0
ENDBLK
  0
BLOCK
  2
*DIM_0023
 70
    65
 10
0.0
 20
0.0
  0
LINE
  8
寸法
  6
CONTINUOUS
 10
-21.962435
 20
-57.49818
 11
-86.962435
 21
-57.49818
  0
POINT
  8
寸法
 10
-21.962435
 20
-57.49818
  0
POINT
  8
寸法
 10
-86.962435
 20
-57.49818
  0
TEXT
  7
TextStyle03
  8
寸法
  6
CONTINUOUS
 10
-66.19375
 20
-57.125
  1
呼称寸法　1300
 40
3.0
 72
     5
 11
-42.75625
 21
-57.125
  0
ENDBLK
  0
BLOCK
  2
*DIM_0024
 70
    65
 10
0.0
 20
0.0
  0
LINE
  8
寸法
  6
BYBLOCK
 62
     0
 10
-79.462435
 20
74.99809
 11
-79.462435
 21
93.886522
  0
LINE
  8
寸法
  6
BYBLOCK
 62
     0
 10
-54.462435
 20
74.99809
 11
-54.462435
 21
93.886522
  0
LINE
  8
寸法
  6
BYBLOCK
 62
     0
 10
-79.462435
 20
93.886522
 11
-54.462435
 21
93.886522
  0
POINT
  8
寸法
 62
     0
 10
-79.462435
 20
93.886522
  0
POINT
  8
寸法
 62
     0
 10
-54.462435
 20
93.886522
  0
TEXT
  7
TextStyle03
  8
寸法
  6
CONTINUOUS
 62
     0
 10
-69.4375
 20
94.275
  1
500
 40
3.0
 72
     5
 11
-64.5625
 21
94.275
  0
ENDBLK
  0
BLOCK
  2
*DIM_0025
 70
    65
 10
0.0
 20
0.0
  0
LINE
  8
寸法
  6
BYBLOCK
 62
     0
 10
-29.462435
 20
74.99809
 11
-29.462435
 21
93.886522
  0
LINE
  8
寸法
  6
BYBLOCK
 62
     0
 10
-54.462435
 20
93.886522
 11
-29.462435
 21
93.886522
  0
POINT
  8
寸法
 62
     0
 10
-29.462435
 20
93.886522
  0
TEXT
  7
TextStyle03
  8
寸法
  6
CONTINUOUS
 62
     0
 10
-44.4375
 20
94.275
  1
500
 40
3.0
 72
     5
 11
-39.5625
 21
94.275
  0
ENDBLK
  0
BLOCK
  2
*DIM_0026
 70
    65
 10
0.0
 20
0.0
  0
LINE
  8
寸法
  6
BYBLOCK
 62
     0
 10
-87.962435
 20
56.498087
 11
-110.168555
 21
56.498087
  0
LINE
  8
寸法
  6
BYBLOCK
 62
     0
 10
-87.962435
 20
26.498087
 11
-110.168555
 21
26.498087
  0
LINE
  8
寸法
  6
BYBLOCK
 62
     0
 10
-110.168555
 20
56.498087
 11
-110.168555
 21
26.498087
  0
POINT
  8
寸法
 62
     0
 10
-110.168555
 20
56.498087
  0
POINT
  8
寸法
 62
     0
 10
-110.168555
 20
26.498087
  0
TEXT
  7
TextStyle03
  8
寸法
  6
CONTINUOUS
 62
     0
 10
-110.575
 20
39.0625
  1
600
 40
3.0
 50
90.0
 72
     5
 11
-110.575
 21
43.9375
  0
ENDBLK
  0
BLOCK
  2
*DIM_0027
 70
    65
 10
0.0
 20
0.0
  0
LINE
  8
寸法
  6
BYBLOCK
 62
     0
 10
145.407892
 20
70.43194
 11
155.070205
 21
70.43194
  0
LINE
  8
寸法
  6
BYBLOCK
 62
     0
 10
145.407892
 20
6.43194
 11
155.070205
 21
6.43194
  0
LINE
  8
寸法
  6
BYBLOCK
 62
     0
 10
155.070205
 20
70.43194
 11
155.070205
 21
6.43194
  0
POINT
  8
寸法
 62
     0
 10
155.070205
 20
70.43194
  0
POINT
  8
寸法
 62
     0
 10
155.070205
 20
6.43194
  0
TEXT
  7
TextStyle03
  8
寸法
  6
CONTINUOUS
 62
     0
 10
154.675
 20
35.09375
  1
1280
 40
3.0
 50
90.0
 72
     5
 11
154.675
 21
41.65625
  0
ENDBLK
  0
BLOCK
  2
*DIM_0028
 70
    65
 10
0.0
 20
0.0
  0
LINE
  8
寸法
  6
BYBLOCK
 62
     0
 10
78.407892
 20
73.43194
 11
78.407892
 21
81.179292
  0
LINE
  8
寸法
  6
BYBLOCK
 62
     0
 10
142.407892
 20
73.43194
 11
142.407892
 21
81.179292
  0
LINE
  8
寸法
  6
BYBLOCK
 62
     0
 10
78.407892
 20
81.179292
 11
142.407892
 21
81.179292
  0
POINT
  8
寸法
 62
     0
 10
78.407892
 20
81.179292
  0
POINT
  8
寸法
 62
     0
 10
142.407892
 20
81.179292
  0
TEXT
  7
TextStyle03
  8
寸法
  6
CONTINUOUS
 62
     0
 10
107.09375
 20
81.5
  1
1280
 40
3.0
 72
     5
 11
113.65625
 21
81.5
  0
ENDBLK
  0
BLOCK
  2
*GRP_0029
 70
    65
 10
0.0
 20
0.0
  0
LINE
  8
補助線
  6
BYBLOCK
 62
     0
 10
-46.837435
 20
74.998087
 11
-47.087435
 21
74.998087
  0
LINE
  8
補助線
  6
BYBLOCK
 62
     0
 10
-46.962435
 20
75.123087
 11
-46.962435
 21
74.873087
  0
ENDBLK
  0
BLOCK
  2
*GRP_0030
 70
    65
 10
0.0
 20
0.0
  0
LINE
  8
補助線
  6
BYBLOCK
 62
     0
 10
-31.837435
 20
74.998087
 11
-32.087435
 21
74.998087
  0
LINE
  8
補助線
  6
BYBLOCK
 62
     0
 10
-31.962435
 20
75.123087
 11
-31.962435
 21
74.873087
  0
ENDBLK
  0
BLOCK
  2
*GRP_0031
 70
    65
 10
0.0
 20
0.0
  0
LINE
  8
補助線
  6
BYBLOCK
 62
     0
 10
-62.087435
 20
74.998087
 11
-61.837435
 21
74.998087
  0
LINE
  8
補助線
  6
BYBLOCK
 62
     0
 10
-61.962435
 20
75.123087
 11
-61.962435
 21
74.873087
  0
ENDBLK
  0
BLOCK
  2
*GRP_0032
 70
    65
 10
0.0
 20
0.0
  0
LINE
  8
補助線
  6
BYBLOCK
 62
     0
 10
-77.087435
 20
74.998087
 11
-76.837435
 21
74.998087
  0
LINE
  8
補助線
  6
BYBLOCK
 62
     0
 10
-76.962435
 20
75.123087
 11
-76.962435
 21
74.873087
  0
ENDBLK
  0
BLOCK
  2
*GRP_0033
 70
    65
 10
0.0
 20
0.0
  0
LINE
  8
補助線
  6
BYBLOCK
 62
     0
 10
-87.962432
 20
49.12309
 11
-87.962432
 21
48.87309
  0
LINE
  8
補助線
  6
BYBLOCK
 62
     0
 10
-88.087432
 20
48.99809
 11
-87.837432
 21
48.99809
  0
ENDBLK
  0
BLOCK
  2
*GRP_0034
 70
    65
 10
0.0
 20
0.0
  0
LINE
  8
補助線
  6
BYBLOCK
 62
     0
 10
-87.962432
 20
64.12309
 11
-87.962432
 21
63.87309
  0
LINE
  8
補助線
  6
BYBLOCK
 62
     0
 10
-88.087432
 20
63.99809
 11
-87.837432
 21
63.99809
  0
ENDBLK
  0
BLOCK
  2
*GRP_0035
 70
    65
 10
0.0
 20
0.0
  0
LINE
  8
補助線
  6
BYBLOCK
 62
     0
 10
-87.962432
 20
33.873085
 11
-87.962432
 21
34.123085
  0
LINE
  8
補助線
  6
BYBLOCK
 62
     0
 10
-88.087432
 20
33.998085
 11
-87.837432
 21
33.998085
  0
ENDBLK
  0
BLOCK
  2
*GRP_0036
 70
    65
 10
0.0
 20
0.0
  0
LINE
  8
補助線
  6
BYBLOCK
 62
     0
 10
-87.962432
 20
18.873085
 11
-87.962432
 21
19.123085
  0
LINE
  8
補助線
  6
BYBLOCK
 62
     0
 10
-88.087432
 20
18.998085
 11
-87.837432
 21
18.998085
  0
ENDBLK
  0
BLOCK
  2
*GRP_0037
 70
    65
 10
0.0
 20
0.0
  0
LINE
  8
補助線
  6
BYBLOCK
 62
     0
 10
-62.087438
 20
7.99809
 11
-61.837438
 21
7.99809
  0
LINE
  8
補助線
  6
BYBLOCK
 62
     0
 10
-61.962438
 20
7.87309
 11
-61.962438
 21
8.12309
  0
ENDBLK
  0
BLOCK
  2
*GRP_0038
 70
    65
 10
0.0
 20
0.0
  0
LINE
  8
補助線
  6
BYBLOCK
 62
     0
 10
-77.087438
 20
7.99809
 11
-76.837438
 21
7.99809
  0
LINE
  8
補助線
  6
BYBLOCK
 62
     0
 10
-76.962438
 20
7.87309
 11
-76.962438
 21
8.12309
  0
ENDBLK
  0
BLOCK
  2
*GRP_0039
 70
    65
 10
0.0
 20
0.0
  0
LINE
  8
補助線
  6
BYBLOCK
 62
     0
 10
-46.837432
 20
7.99809
 11
-47.087432
 21
7.99809
  0
LINE
  8
補助線
  6
BYBLOCK
 62
     0
 10
-46.962432
 20
7.87309
 11
-46.962432
 21
8.12309
  0
ENDBLK
  0
BLOCK
  2
*GRP_0040
 70
    65
 10
0.0
 20
0.0
  0
LINE
  8
補助線
  6
BYBLOCK
 62
     0
 10
-31.837432
 20
7.99809
 11
-32.087432
 21
7.99809
  0
LINE
  8
補助線
  6
BYBLOCK
 62
     0
 10
-31.962432
 20
7.87309
 11
-31.962432
 21
8.12309
  0
ENDBLK
  0
BLOCK
  2
*GRP_0041
 70
    65
 10
0.0
 20
0.0
  0
LINE
  8
補助線
  6
BYBLOCK
 62
     0
 10
-20.962435
 20
33.873087
 11
-20.962435
 21
34.123087
  0
LINE
  8
補助線
  6
BYBLOCK
 62
     0
 10
-20.837435
 20
33.998087
 11
-21.087435
 21
33.998087
  0
ENDBLK
  0
BLOCK
  2
*GRP_0042
 70
    65
 10
0.0
 20
0.0
  0
LINE
  8
補助線
  6
BYBLOCK
 62
     0
 10
-20.962435
 20
18.873087
 11
-20.962435
 21
19.123087
  0
LINE
  8
補助線
  6
BYBLOCK
 62
     0
 10
-20.837435
 20
18.998087
 11
-21.087435
 21
18.998087
  0
ENDBLK
  0
BLOCK
  2
*GRP_0043
 70
    65
 10
0.0
 20
0.0
  0
LINE
  8
補助線
  6
BYBLOCK
 62
     0
 10
-20.962435
 20
49.123087
 11
-20.962435
 21
48.873087
  0
LINE
  8
補助線
  6
BYBLOCK
 62
     0
 10
-20.837435
 20
48.998087
 11
-21.087435
 21
48.998087
  0
ENDBLK
  0
BLOCK
  2
*GRP_0044
 70
    65
 10
0.0
 20
0.0
  0
LINE
  8
補助線
  6
BYBLOCK
 62
     0
 10
-20.962435
 20
64.123087
 11
-20.962435
 21
63.873087
  0
LINE
  8
補助線
  6
BYBLOCK
 62
     0
 10
-20.837435
 20
63.998087
 11
-21.087435
 21
63.998087
  0
ENDBLK
  0
ENDSEC
  0
SECTION
  2
ENTITIES
  0
POLYLINE
  8
通り芯
  6
CONTINUOUS
 66
     1
 70
     1
  0
VERTEX
  8
通り芯
 10
-210.0
 20
-148.5
  0
VERTEX
  8
通り芯
 10
210.0
 20
-148.5
  0
VERTEX
  8
通り芯
 10
210.0
 20
148.5
  0
VERTEX
  8
通り芯
 10
-210.0
 20
148.5
  0
SEQEND
  0
INSERT
  2
*GRP_0001
  8
型材断面
  6
CONTINUOUS
 10
0.0
 20
0.0
  0
LINE
  8
型材断面
  6
CONTINUOUS
 10
-53.837435
 20
10.248087
 11
-53.837435
 21
8.998087
  0
LINE
  8
型材断面
  6
CONTINUOUS
 10
-55.087435
 20
10.248087
 11
-55.087435
 21
8.998087
  0
LINE
  8
型材断面
  6
CONTINUOUS
 10
-18.727215
 20
-89.050075
 11
-18.727215
 21
-88.375075
  0
LINE
  8
型材断面
  6
CONTINUOUS
 62
    47
 10
-18.052215
 20
-88.375075
 11
-18.052215
 21
-87.625075
  0
LINE
  8
型材断面
  6
CONTINUOUS
 62
    47
 10
-21.887435
 20
-86.43165
 11
-18.052215
 21
-87.625075
  0
LINE
  8
型材断面
  6
CONTINUOUS
 10
-18.727215
 20
-88.375075
 11
-18.052215
 21
-88.375075
  0
LINE
  8
型材断面
  6
CONTINUOUS
 10
-19.46244
 20
-86.325328
 11
-19.53744
 21
-86.325325
  0
LINE
  8
型材断面
  6
CONTINUOUS
 10
-19.46244
 20
-86.325328
 11
-19.46244
 21
-85.075328
  0
LINE
  8
型材断面
  6
CONTINUOUS
 10
-21.962435
 20
-84.32533
 11
-21.962435
 21
-85.075325
  0
LINE
  8
型材断面
  6
CONTINUOUS
 10
-19.46244
 20
-85.075328
 11
-21.962435
 21
-85.075325
  0
LINE
  8
型材断面
  6
CONTINUOUS
 10
-21.887435
 20
-86.43165
 11
-21.887435
 21
-86.325325
  0
INSERT
  2
*GRP_0002
  8
型材断面
  6
CONTINUOUS
 10
0.0
 20
0.0
  0
LINE
  8
型材断面
  6
DASHDOT
 10
-21.962435
 20
-91.4718
 11
-21.962435
 21
8.998087
  0
LINE
  8
型材断面
  6
CONTINUOUS
 10
-23.212435
 20
10.248087
 11
-53.837435
 21
10.248087
  0
LINE
  8
型材断面
  6
CONTINUOUS
 10
-21.962435
 20
8.998087
 11
-54.462435
 21
8.998087
  0
LINE
  8
型材断面
  6
CONTINUOUS
 10
-18.052215
 20
5.087867
 11
-23.212435
 21
10.248087
  0
LINE
  8
型材断面
  6
CONTINUOUS
 10
-90.197655
 20
-89.050075
 11
-90.197655
 21
-88.375075
  0
LINE
  8
型材断面
  6
CONTINUOUS
 62
    47
 10
-90.872655
 20
-88.375075
 11
-90.872655
 21
-87.625075
  0
LINE
  8
型材断面
  6
CONTINUOUS
 62
    47
 10
-87.037435
 20
-86.43165
 11
-90.872655
 21
-87.625075
  0
LINE
  8
型材断面
  6
CONTINUOUS
 10
-90.197655
 20
-88.375075
 11
-90.872655
 21
-88.375075
  0
LINE
  8
型材断面
  6
CONTINUOUS
 10
-89.46243
 20
-86.325328
 11
-89.38743
 21
-86.325325
  0
LINE
  8
型材断面
  6
CONTINUOUS
 10
-89.46243
 20
-86.325328
 11
-89.46243
 21
-85.075328
  0
LINE
  8
型材断面
  6
CONTINUOUS
 10
-86.962435
 20
-84.32533
 11
-86.962435
 21
-85.075325
  0
LINE
  8
型材断面
  6
CONTINUOUS
 10
-89.46243
 20
-85.075328
 11
-86.962435
 21
-85.075325
  0
LINE
  8
型材断面
  6
CONTINUOUS
 10
-87.037435
 20
-86.43165
 11
-87.037435
 21
-86.325325
  0
INSERT
  2
*GRP_0003
  8
型材断面
  6
CONTINUOUS
 10
0.0
 20
0.0
  0
LINE
  8
型材断面
  6
DASHDOT
 10
-86.962435
 20
-91.4718
 11
-86.962435
 21
8.998087
  0
LINE
  8
型材断面
  6
CONTINUOUS
 10
-85.712435
 20
10.248087
 11
-55.087435
 21
10.248087
  0
LINE
  8
型材断面
  6
CONTINUOUS
 10
-86.962435
 20
8.998087
 11
-54.462435
 21
8.998087
  0
LINE
  8
型材断面
  6
CONTINUOUS
 10
-90.872655
 20
5.087867
 11
-85.712435
 21
10.248087
  0
LINE
  8
型材断面
  6
CONTINUOUS
 10
-90.872655
 20
-88.375075
 11
-18.052215
 21
-88.375075
  0
LINE
  8
型材断面
  6
CONTINUOUS
 10
-90.872655
 20
-87.625075
 11
-18.052215
 21
-87.625075
  0
LINE
  8
型材断面
  6
CONTINUOUS
 10
-21.962435
 20
-84.325328
 11
-86.962435
 21
-84.325328
  0
LINE
  8
型材断面
  6
CONTINUOUS
 10
-19.46244
 20
-86.325325
 11
-89.46243
 21
-86.325325
  0
LINE
  8
型材断面
  6
CONTINUOUS
 10
-19.46244
 20
-85.075328
 11
-89.46243
 21
-85.075328
  0
LINE
  8
型材断面
  6
CONTINUOUS
 10
-21.887435
 20
-86.43165
 11
-87.037435
 21
-86.43165
  0
LINE
  8
型材断面
  6
CONTINUOUS
 10
-18.727215
 20
-89.050075
 11
-90.197655
 21
-89.050075
  0
LINE
  8
型材断面
  6
CONTINUOUS
 10
-19.46244
 20
6.498092
 11
-89.46243
 21
6.498092
  0
LINE
  8
型材断面
  6
CONTINUOUS
 10
-18.052215
 20
5.087867
 11
-90.872655
 21
5.087867
  0
LINE
  8
型材断面
  6
CONTINUOUS
 10
-53.837435
 20
72.748087
 11
-53.837435
 21
73.998087
  0
LINE
  8
型材断面
  6
CONTINUOUS
 10
-55.087435
 20
72.748087
 11
-55.087435
 21
73.998087
  0
LINE
  8
型材断面
  6
CONTINUOUS
 10
-23.212435
 20
72.748087
 11
-53.837435
 21
72.748087
  0
LINE
  8
型材断面
  6
CONTINUOUS
 10
-21.962435
 20
73.998087
 11
-54.462435
 21
73.998087
  0
LINE
  8
型材断面
  6
CONTINUOUS
 10
-18.052215
 20
77.908308
 11
-23.212435
 21
72.748087
  0
LINE
  8
型材断面
  6
CONTINUOUS
 10
-85.712435
 20
72.748087
 11
-55.087435
 21
72.748087
  0
LINE
  8
型材断面
  6
CONTINUOUS
 10
-86.962435
 20
73.998087
 11
-54.462435
 21
73.998087
  0
LINE
  8
型材断面
  6
CONTINUOUS
 10
-90.872655
 20
77.908308
 11
-85.712435
 21
72.748087
  0
LINE
  8
型材断面
  6
CONTINUOUS
 10
-19.46244
 20
76.498083
 11
-89.46243
 21
76.498083
  0
LINE
  8
型材断面
  6
CONTINUOUS
 10
-18.052215
 20
77.908308
 11
-90.872655
 21
77.908308
  0
LINE
  8
型材断面
  6
CONTINUOUS
 10
-23.212435
 20
42.123087
 11
-21.962435
 21
42.123087
  0
LINE
  8
型材断面
  6
CONTINUOUS
 10
-23.212435
 20
40.873087
 11
-21.962435
 21
40.873087
  0
LINE
  8
型材断面
  6
CONTINUOUS
 10
-85.712435
 20
40.873087
 11
-86.962435
 21
40.873087
  0
LINE
  8
型材断面
  6
CONTINUOUS
 10
-85.712435
 20
42.123087
 11
-86.962435
 21
42.123087
  0
LINE
  8
型材断面
  6
DASHDOT
 10
-21.962435
 20
41.498087
 11
-86.962435
 21
41.498087
  0
LINE
  8
型材断面
  6
CONTINUOUS
 10
-23.212435
 20
10.248087
 11
-23.212435
 21
40.873087
  0
LINE
  8
型材断面
  6
CONTINUOUS
 10
-21.962435
 20
8.998087
 11
-21.962435
 21
41.498087
  0
LINE
  8
型材断面
  6
CONTINUOUS
 10
-86.962435
 20
8.998087
 11
-86.962435
 21
41.498087
  0
LINE
  8
型材断面
  6
CONTINUOUS
 10
-85.712435
 20
10.248087
 11
-85.712435
 21
40.873087
  0
LINE
  8
型材断面
  6
CONTINUOUS
 10
-23.212435
 20
42.123087
 11
-23.212435
 21
72.748087
  0
LINE
  8
型材断面
  6
CONTINUOUS
 10
-21.962435
 20
41.498087
 11
-21.962435
 21
73.998087
  0
LINE
  8
型材断面
  6
CONTINUOUS
 10
-18.052215
 20
5.087867
 11
-18.052215
 21
77.908308
  0
LINE
  8
型材断面
  6
CONTINUOUS
 10
-19.46244
 20
6.498092
 11
-19.46244
 21
76.498083
  0
LINE
  8
型材断面
  6
CONTINUOUS
 10
-86.962435
 20
41.498087
 11
-86.962435
 21
73.998087
  0
LINE
  8
型材断面
  6
CONTINUOUS
 10
-85.712435
 20
42.123087
 11
-85.712435
 21
72.748087
  0
LINE
  8
型材断面
  6
CONTINUOUS
 10
-90.872655
 20
5.087867
 11
-90.872655
 21
77.908308
  0
LINE
  8
型材断面
  6
CONTINUOUS
 10
-89.46243
 20
6.498092
 11
-89.46243
 21
76.498083
  0
LINE
  8
型材断面
  6
DASHDOT
 10
-54.462435
 20
-91.4718
 11
-54.462435
 21
73.998087
  0
LINE
  8
型材断面
  6
CONTINUOUS
 10
-13.93856
 20
41.498087
 11
-10.0528
 21
39.254643
  0
LINE
  8
型材断面
  6
CONTINUOUS
 10
-13.93856
 20
41.498087
 11
-10.0528
 21
43.741532
  0
LINE
  8
型材断面
  6
CONTINUOUS
 10
-10.0528
 20
43.741532
 11
-10.0528
 21
39.254643
  0
LINE
  8
型材断面
  6
CONTINUOUS
 10
-54.462435
 20
82.021962
 11
-56.70588
 21
85.907723
  0
LINE
  8
型材断面
  6
CONTINUOUS
 10
-54.462435
 20
82.021962
 11
-52.21899
 21
85.907723
  0
LINE
  8
型材断面
  6
CONTINUOUS
 10
-52.21899
 20
85.907723
 11
-56.70588
 21
85.907723
  0
LINE
  8
型材断面
  6
CONTINUOUS
 10
-54.462435
 20
0.974213
 11
-56.70588
 21
-2.911547
  0
LINE
  8
型材断面
  6
CONTINUOUS
 10
-54.462435
 20
0.974213
 11
-52.21899
 21
-2.911547
  0
LINE
  8
型材断面
  6
CONTINUOUS
 10
-52.21899
 20
-2.911547
 11
-56.70588
 21
-2.911547
  0
LINE
  8
型材断面
  6
CONTINUOUS
 10
-94.98631
 20
41.498087
 11
-98.87207
 21
39.254643
  0
LINE
  8
型材断面
  6
CONTINUOUS
 10
-94.98631
 20
41.498087
 11
-98.87207
 21
43.741532
  0
LINE
  8
型材断面
  6
CONTINUOUS
 10
-98.87207
 20
43.741532
 11
-98.87207
 21
39.254643
  0
LINE
  8
型材断面
  6
CONTINUOUS
 10
13.723925
 20
3.21229
 11
11.48048
 21
-0.67347
  0
LINE
  8
型材断面
  6
CONTINUOUS
 10
13.723925
 20
3.21229
 11
15.96737
 21
-0.67347
  0
LINE
  8
型材断面
  6
CONTINUOUS
 10
15.96737
 20
-0.67347
 11
11.48048
 21
-0.67347
  0
LINE
  8
型材断面
  6
CONTINUOUS
 10
4.690045
 20
-2.081362
 11
57.346725
 21
-2.081362
  0
LINE
  8
型材断面
  6
CONTINUOUS
 10
4.690045
 20
-9.589965
 11
57.346725
 21
-9.589965
  0
LINE
  8
型材断面
  6
CONTINUOUS
 10
75.95784
 20
87.08639
 11
95.630918
 21
87.08639
  0
LINE
  8
ガラス
  6
CONTINUOUS
 10
78.407892
 20
6.43194
 11
142.407892
 21
6.43194
  0
LINE
  8
ガラス
  6
CONTINUOUS
 10
142.407892
 20
70.43194
 11
142.407892
 21
6.43194
  0
LINE
  8
ガラス
  6
CONTINUOUS
 10
78.407892
 20
6.43194
 11
78.407892
 21
70.43194
  0
LINE
  8
ガラス
  6
CONTINUOUS
 10
142.407892
 20
70.43194
 11
78.407892
 21
70.43194
  0
CIRCLE
  8
ボルト／ビス
  6
CONTINUOUS
 10
-46.962435
 20
74.998087
 40
0.288675
  0
CIRCLE
  8
ボルト／ビス
  6
CONTINUOUS
 10
-46.962435
 20
74.998087
 40
0.455885
  0
CIRCLE
  8
ボルト／ビス
  6
CONTINUOUS
 10
-31.962435
 20
74.998087
 40
0.288675
  0
CIRCLE
  8
ボルト／ビス
  6
CONTINUOUS
 10
-31.962435
 20
74.998087
 40
0.455885
  0
CIRCLE
  8
ボルト／ビス
  6
CONTINUOUS
 10
-61.962435
 20
74.998087
 40
0.288675
  0
CIRCLE
  8
ボルト／ビス
  6
CONTINUOUS
 10
-61.962435
 20
74.998087
 40
0.455885
  0
CIRCLE
  8
ボルト／ビス
  6
CONTINUOUS
 10
-76.962435
 20
74.998087
 40
0.288675
  0
CIRCLE
  8
ボルト／ビス
  6
CONTINUOUS
 10
-76.962435
 20
74.998087
 40
0.455885
  0
CIRCLE
  8
ボルト／ビス
  6
CONTINUOUS
 10
-87.962432
 20
48.99809
 40
0.288675
  0
CIRCLE
  8
ボルト／ビス
  6
CONTINUOUS
 10
-87.962432
 20
48.99809
 40
0.455885
  0
CIRCLE
  8
ボルト／ビス
  6
CONTINUOUS
 10
-87.962432
 20
63.99809
 40
0.288675
  0
CIRCLE
  8
ボルト／ビス
  6
CONTINUOUS
 10
-87.962432
 20
63.99809
 40
0.455885
  0
CIRCLE
  8
ボルト／ビス
  6
CONTINUOUS
 10
-87.962432
 20
33.998085
 40
0.288675
  0
CIRCLE
  8
ボルト／ビス
  6
CONTINUOUS
 10
-87.962432
 20
33.998085
 40
0.455885
  0
CIRCLE
  8
ボルト／ビス
  6
CONTINUOUS
 10
-87.962432
 20
18.998085
 40
0.288675
  0
CIRCLE
  8
ボルト／ビス
  6
CONTINUOUS
 10
-87.962432
 20
18.998085
 40
0.455885
  0
CIRCLE
  8
ボルト／ビス
  6
CONTINUOUS
 10
-61.962438
 20
7.99809
 40
0.288675
  0
CIRCLE
  8
ボルト／ビス
  6
CONTINUOUS
 10
-61.962438
 20
7.99809
 40
0.455885
  0
CIRCLE
  8
ボルト／ビス
  6
CONTINUOUS
 10
-76.962438
 20
7.99809
 40
0.288675
  0
CIRCLE
  8
ボルト／ビス
  6
CONTINUOUS
 10
-76.962438
 20
7.99809
 40
0.455885
  0
CIRCLE
  8
ボルト／ビス
  6
CONTINUOUS
 10
-46.962432
 20
7.99809
 40
0.288675
  0
CIRCLE
  8
ボルト／ビス
  6
CONTINUOUS
 10
-46.962432
 20
7.99809
 40
0.455885
  0
CIRCLE
  8
ボルト／ビス
  6
CONTINUOUS
 10
-31.962432
 20
7.99809
 40
0.288675
  0
CIRCLE
  8
ボルト／ビス
  6
CONTINUOUS
 10
-31.962432
 20
7.99809
 40
0.455885
  0
CIRCLE
  8
ボルト／ビス
  6
CONTINUOUS
 10
-20.962435
 20
33.998087
 40
0.288675
  0
CIRCLE
  8
ボルト／ビス
  6
CONTINUOUS
 10
-20.962435
 20
33.998087
 40
0.455885
  0
CIRCLE
  8
ボルト／ビス
  6
CONTINUOUS
 10
-20.962435
 20
18.998087
 40
0.288675
  0
CIRCLE
  8
ボルト／ビス
  6
CONTINUOUS
 10
-20.962435
 20
18.998087
 40
0.455885
  0
CIRCLE
  8
ボルト／ビス
  6
CONTINUOUS
 10
-20.962435
 20
48.998087
 40
0.288675
  0
CIRCLE
  8
ボルト／ビス
  6
CONTINUOUS
 10
-20.962435
 20
48.998087
 40
0.455885
  0
CIRCLE
  8
ボルト／ビス
  6
CONTINUOUS
 10
-20.962435
 20
63.998087
 40
0.288675
  0
CIRCLE
  8
ボルト／ビス
  6
CONTINUOUS
 10
-20.962435
 20
63.998087
 40
0.455885
  0
TEXT
  7
TextStyle03
  8
文字
  6
CONTINUOUS
 10
73.475
 20
125.25
  1
シリーズ：ＳＴＦＦＫ
 40
5.0
 72
     5
 11
129.1
 21
125.25
  0
TEXT
  7
TextStyle03
  8
文字
  6
CONTINUOUS
 10
73.475
 20
119.625
  1
　　　　　（固定）1300×1300タイプ
 40
5.0
 72
     5
 11
168.475
 21
119.625
  0
TEXT
  7
TextStyle03
  8
文字
  6
CONTINUOUS
 10
73.475
 20
114.0
  1
図面名　：外観姿図
 40
5.0
 72
     5
 11
123.475
 21
114.0
  0
TEXT
  7
TextStyle03
  8
文字
  6
CONTINUOUS
 10
73.475
 20
108.375
  1
　　　　　　
 40
5.0
 72
     5
 11
106.6
 21
108.375
  0
INSERT
  2
*GRP_0004
  8
文字
  6
CONTINUOUS
 10
0.0
 20
0.0
  0
INSERT
  2
*GRP_0005
  8
文字
  6
CONTINUOUS
 10
0.0
 20
0.0
  0
INSERT
  2
*GRP_0006
  8
文字
  6
CONTINUOUS
 10
0.0
 20
0.0
  0
INSERT
  2
*GRP_0007
  8
文字
  6
CONTINUOUS
 10
0.0
 20
0.0
  0
INSERT
  2
*GRP_0008
  8
文字
  6
CONTINUOUS
 10
0.0
 20
0.0
  0
INSERT
  2
*GRP_0009
  8
文字
  6
CONTINUOUS
 10
0.0
 20
0.0
  0
INSERT
  2
*GRP_0010
  8
文字
  6
CONTINUOUS
 10
0.0
 20
0.0
  0
INSERT
  2
*GRP_0011
  8
文字
  6
CONTINUOUS
 10
0.0
 20
0.0
  0
INSERT
  2
*GRP_0012
  8
文字
  6
CONTINUOUS
 10
0.0
 20
0.0
  0
INSERT
  2
*GRP_0013
  8
文字
  6
CONTINUOUS
 10
0.0
 20
0.0
  0
INSERT
  2
*GRP_0014
  8
文字
  6
CONTINUOUS
 10
0.0
 20
0.0
  0
INSERT
  2
*GRP_0015
  8
文字
  6
CONTINUOUS
 10
0.0
 20
0.0
  0
INSERT
  2
*GRP_0016
  8
文字
  6
CONTINUOUS
 10
0.0
 20
0.0
  0
INSERT
  2
*GRP_0017
  8
文字
  6
CONTINUOUS
 10
0.0
 20
0.0
  0
INSERT
  2
*GRP_0018
  8
文字
  6
CONTINUOUS
 10
0.0
 20
0.0
  0
INSERT
  2
*GRP_0019
  8
文字
  6
CONTINUOUS
 10
0.0
 20
0.0
  0
TEXT
  7
TextStyle03
  8
文字
  6
CONTINUOUS
 10
-117.625
 20
23.025
  1
アンカーピッチ
 40
3.0
 50
90.0
 72
     5
 11
-117.625
 21
46.275
  0
TEXT
  7
TextStyle03
  8
文字
  6
CONTINUOUS
 10
-93.725
 20
100.925
  1
アンカーピッチ
 40
3.0
 72
     5
 11
-70.475
 21
100.925
  0
TEXT
  7
TextStyle03
  8
文字
  6
CONTINUOUS
 10
17.95
 20
-0.35
  1
は排水穴位置を示す
 40
3.0
 72
     5
 11
47.95
 21
-0.35
  0
TEXT
  7
TextStyle03
  8
文字
  6
CONTINUOUS
 10
12.35
 20
-8.2
  1
アンカー数量　１０ヶ所
 40
3.0
 72
     5
 11
49.1
 21
-8.2
  0
TEXT
  7
TextStyle03
  8
文字
  6
CONTINUOUS
 10
127.825
 20
9.4
  1
×１枚
 40
3.0
 72
     5
 11
137.575
 21
9.4
  0
TEXT
  7
TextStyle03
  8
文字
  6
CONTINUOUS
 10
77.6
 20
88.225
  1
ガラス寸法
 40
3.0
 72
     5
 11
94.1
 21
88.225
  0
INSERT
  2
*DIM_0020
  8
寸法
  6
CONTINUOUS
 10
0.0
 20
0.0
  0
INSERT
  2
*DIM_0021
  8
寸法
  6
CONTINUOUS
 10
0.0
 20
0.0
  0
INSERT
  2
*DIM_0022
  8
寸法
  6
CONTINUOUS
 10
0.0
 20
0.0
  0
INSERT
  2
*DIM_0023
  8
寸法
  6
CONTINUOUS
 10
0.0
 20
0.0
  0
INSERT
  2
*DIM_0024
  8
寸法
  6
CONTINUOUS
 10
0.0
 20
0.0
  0
INSERT
  2
*DIM_0025
  8
寸法
  6
CONTINUOUS
 10
0.0
 20
0.0
  0
INSERT
  2
*DIM_0026
  8
寸法
  6
CONTINUOUS
 10
0.0
 20
0.0
  0
INSERT
  2
*DIM_0027
  8
寸法
  6
CONTINUOUS
 10
0.0
 20
0.0
  0
INSERT
  2
*DIM_0028
  8
寸法
  6
CONTINUOUS
 10
0.0
 20
0.0
  0
LINE
  8
曲げ物
  6
CONTINUOUS
 10
-51.636545
 20
44.323977
 11
-57.179512
 21
38.78101
  0
LINE
  8
曲げ物
  6
CONTINUOUS
 10
-52.69175
 20
42.019813
 11
-54.875345
 21
39.836218
  0
LINE
  8
曲げ物
  6
CONTINUOUS
 10
-53.94071
 20
43.268772
 11
-56.124305
 21
41.085177
  0
LINE
  8
St
  6
CONTINUOUS
 62
    47
 10
-18.727215
 20
-88.375075
 11
-18.052215
 21
-88.375075
  0
LINE
  8
St
  6
CONTINUOUS
 62
    47
 10
-90.197655
 20
-88.375075
 11
-90.872655
 21
-88.375075
  0
ENDSEC
  0
EOF
