  0
SECTION
  2
HEADER
  9
$EXTMIN
 10
-210.0
 20
-148.5
  9
$EXTMAX
 10
210.0
 20
148.5
  9
$PDMODE
 70
    32
  9
$PDSIZE
 40
1.5
  9
$LTSCALE
 40
10.0
  0
ENDSEC
  0
SECTION
  2
TABLES
  0
TABLE
  2
LTYPE
 70
    15
  0
LTYPE
  2
CONTINUOUS
 70
    64
  3
実線
 72
    65
 73
     0
 40
0.0
  0
LTYPE
  2
DASHED
 70
    64
  3
破線A
 72
    65
 73
     2
 40
0.6
 49
0.4
 49
-0.2
  0
LTYPE
  2
DASHEDX2
 70
    64
  3
破線B
 72
    65
 73
     2
 40
1.3
 49
0.9
 49
-0.4
  0
LTYPE
  2
DASHDOT
 70
    64
  3
１点鎖線A
 72
    65
 73
     4
 40
0.5375
 49
0.375
 49
-0.05
 49
0.0625
 49
-0.05
  0
LTYPE
  2
DASHDOTX2
 70
    64
  3
１点鎖線B
 72
    65
 73
     4
 40
1.075
 49
0.75
 49
-0.1
 49
0.125
 49
-0.1
  0
LTYPE
  2
DIVIDE2
 70
    64
  3
２点鎖線A
 72
    65
 73
     6
 40
0.5125
 49
0.3
 49
-0.0375
 49
0.05
 49
-0.0375
 49
0.05
 49
-0.0375
  0
LTYPE
  2
DIVIDE
 70
    64
  3
２点鎖線B
 72
    65
 73
     6
 40
1.05
 49
0.55
 49
-0.1
 49
0.1
 49
-0.1
 49
0.1
 49
-0.1
  0
LTYPE
  2
DOT
 70
    64
  3
点線A
 72
    65
 73
     2
 40
0.1125
 49
0.0625
 49
-0.05
  0
LTYPE
  2
DOTX2
 70
    64
  3
点線B
 72
    65
 73
     2
 40
0.275
 49
0.15
 49
-0.125
  0
LTYPE
  2
CONTINUOUS
 70
    64
  3
実線
 72
    65
 73
     0
 40
0.0
  0
LTYPE
  2
CONTINUOUS
 70
    64
  3
実線
 72
    65
 73
     0
 40
0.0
  0
LTYPE
  2
CONTINUOUS
 70
    64
  3
実線
 72
    65
 73
     0
 40
0.0
  0
LTYPE
  2
CONTINUOUS
 70
    64
  3
実線
 72
    65
 73
     0
 40
0.0
  0
LTYPE
  2
CONTINUOUS
 70
    64
  3
実線
 72
    65
 73
     0
 40
0.0
  0
LTYPE
  2
CONTINUOUS
 70
    64
  3
実線
 72
    65
 73
     0
 40
0.0
  0
ENDTAB
  0
TABLE
  2
LAYER
 70
    34
  0
LAYER
  2
通り芯
 70
     0
 62
    15
  6
CONTINUOUS
  0
LAYER
  2
補助線
 70
     0
 62
    16
  6
DOT
  0
LAYER
  2
躯体
 70
     0
 62
    31
  6
CONTINUOUS
  0
LAYER
  2
型材
 70
     0
 62
    32
  6
CONTINUOUS
  0
LAYER
  2
型材断面
 70
     0
 62
    47
  6
CONTINUOUS
  0
LAYER
  2
ガラス
 70
     0
 62
    48
  6
CONTINUOUS
  0
LAYER
  2
ゴム等
 70
     0
 62
    63
  6
CONTINUOUS
  0
LAYER
  2
ボルト／ビス
 70
     0
 62
    64
  6
CONTINUOUS
  0
LAYER
  2
文字
 70
     0
 62
    79
  6
CONTINUOUS
  0
LAYER
  2
寸法
 70
     0
 62
    80
  6
CONTINUOUS
  0
LAYER
  2
ﾊｯﾁﾝｸﾞ
 70
     0
 62
    95
  6
CONTINUOUS
  0
LAYER
  2
別途部材
 70
     0
 62
    96
  6
CONTINUOUS
  0
LAYER
  2
曲げ物
 70
     0
 62
   111
  6
CONTINUOUS
  0
LAYER
  2
鉄骨等
 70
     0
 62
   112
  6
CONTINUOUS
  0
LAYER
  2
St
 70
     0
 62
   127
  6
CONTINUOUS
  0
LAYER
  2
その他部品等
 70
     0
 62
   128
  6
CONTINUOUS
  0
LAYER
  2
ｶﾞｽｹｯﾄ
 70
     0
 62
   143
  6
CONTINUOUS
  0
LAYER
  2
ｽｹｯﾁ
 70
     0
 62
    14
  6
CONTINUOUS
  0
LAYER
  2
0
 70
     0
 62
    17
  6
CONTINUOUS
  0
LAYER
  2
1
 70
     0
 62
    30
  6
CONTINUOUS
  0
LAYER
  2
4
 70
     0
 62
    33
  6
CONTINUOUS
  0
LAYER
  2
ﾚｲﾔ3
 70
     0
 62
    46
  6
CONTINUOUS
  0
LAYER
  2
外形線
 70
     0
 62
    49
  6
CONTINUOUS
  0
LAYER
  2
部品
 70
     0
 62
    14
  6
CONTINUOUS
  0
LAYER
  2
サッシ芯
 70
     0
 62
    17
  6
DASHDOTX2
  0
LAYER
  2
寸法線
 70
     0
 62
    62
  6
CONTINUOUS
  0
LAYER
  2
姿図外形線
 70
     0
 62
    65
  6
CONTINUOUS
  0
LAYER
  2
姿補助線
 70
     0
 62
    30
  6
CONTINUOUS
  0
LAYER
  2
透視線
 70
     0
 62
    78
  6
DOT
  0
LAYER
  2
用紙
 70
     0
 62
    81
  6
CONTINUOUS
  0
LAYER
  2
実線図枠
 70
     0
 62
    94
  6
CONTINUOUS
  0
LAYER
  2
補助図枠
 70
     0
 62
    97
  6
CONTINUOUS
  0
LAYER
  2
建具記号
 70
     0
 62
   110
  6
CONTINUOUS
  0
LAYER
  2
補助文字
 70
     0
 62
   113
  6
CONTINUOUS
  0
ENDTAB
  0
TABLE
  2
STYLE
 70
    10
  0
STYLE
  2
STANDARD
 70
     0
 40
1.0
 41
1.0
 42
1.0
 50
0.0
 71
     0
  3
TXT
  4
BIGFONT
  0
STYLE
  2
TATE
 70
     4
 40
1.0
 41
1.0
 42
1.0
 50
0.0
 71
     0
  3
TXT
  4
BIGFONT
  0
STYLE
  2
TextStyle03
 70
     0
 40
1.0
 41
1.0
 42
1.0
 50
0.0
 71
     0
  3
MONOTXT
  4
BIGFONT
  0
STYLE
  2
TextStyle04
 70
     0
 40
1.0
 41
1.0
 42
1.0
 50
0.0
 71
     0
  3
MONOTXT
  4
BIGFONT
  0
STYLE
  2
TextStyle05
 70
     0
 40
1.0
 41
1.0
 42
1.0
 50
0.0
 71
     0
  3
MONOTXT
  4
BIGFONT
  0
STYLE
  2
TextStyle06
 70
     0
 40
1.0
 41
1.0
 42
1.0
 50
0.0
 71
     0
  3
MONOTXT
  4
BIGFONT
  0
STYLE
  2
TextStyle07
 70
     0
 40
1.0
 41
1.0
 42
1.0
 50
0.0
 71
     0
  3
MONOTXT
  4
BIGFONT
  0
STYLE
  2
TextStyle08
 70
     0
 40
1.0
 41
1.0
 42
1.0
 50
0.0
 71
     0
  3
MONOTXT
  4
BIGFONT
  0
STYLE
  2
TextStyle09
 70
     0
 40
1.0
 41
1.0
 42
1.0
 50
0.0
 71
     0
  3
MONOTXT
  4
BIGFONT
  0
STYLE
  2
TextStyle10
 70
     0
 40
1.0
 41
1.0
 42
1.0
 50
0.0
 71
     0
  3
MONOTXT
  4
BIGFONT
  0
ENDTAB
  0
ENDSEC
  0
SECTION
  2
BLOCKS
  0
BLOCK
  2
*HAT_0001
 70
    65
 10
0.0
 20
0.0
  0
LINE
  8
型材断面
 10
-11.175
 20
-19.125
 11
-8.1
 21
-16.125
  0
LINE
  8
型材断面
 10
-12.525
 20
-19.125
 11
-8.85
 21
-15.375
  0
LINE
  8
型材断面
 10
-13.95
 20
-19.125
 11
-12.45
 21
-17.625
  0
LINE
  8
型材断面
 10
-15.375
 20
-19.125
 11
-13.875
 21
-17.625
  0
LINE
  8
型材断面
 10
-19.8
 20
-22.125
 11
-18.525
 21
-20.85
  0
LINE
  8
型材断面
 10
-16.8
 20
-19.125
 11
-15.3
 21
-17.625
  0
LINE
  8
型材断面
 10
-20.025
 20
-21.0
 11
-18.525
 21
-19.5
  0
LINE
  8
型材断面
 10
-18.225
 20
-19.125
 11
-16.725
 21
-17.625
  0
LINE
  8
型材断面
 10
-20.025
 20
-19.575
 11
-18.075
 21
-17.625
  0
LINE
  8
型材断面
 10
-20.025
 20
-18.15
 11
-19.5
 21
-17.625
  0
ENDBLK
  0
BLOCK
  2
*HAT_0002
 70
    65
 10
0.0
 20
0.0
  0
LINE
  8
ゴム等
 10
0.675
 20
-7.725
 11
0.675
 21
-7.35
  0
LINE
  8
ゴム等
 10
-0.3
 20
-8.775
 11
-0.3
 21
-6.375
  0
LINE
  8
ゴム等
 10
-1.35
 20
-8.25
 11
-1.35
 21
-5.4
  0
LINE
  8
ゴム等
 10
-2.325
 20
-8.625
 11
-2.325
 21
-4.425
  0
LINE
  8
ゴム等
 10
-3.3
 20
-9.6
 11
-3.3
 21
-5.4
  0
LINE
  8
ゴム等
 10
-4.275
 20
-10.65
 11
-4.275
 21
-6.375
  0
LINE
  8
ゴム等
 10
-5.325
 20
-11.325
 11
-5.325
 21
-7.35
  0
LINE
  8
ゴム等
 10
-6.3
 20
-10.275
 11
-6.3
 21
-8.4
  0
ENDBLK
  0
BLOCK
  2
*HAT_0003
 70
    65
 10
0.0
 20
0.0
  0
LINE
  8
ゴム等
 10
-13.575
 20
2.475
 11
-13.575
 21
4.65
  0
LINE
  8
ゴム等
 10
-14.775
 20
1.275
 11
-14.775
 21
5.85
  0
LINE
  8
ゴム等
 10
-15.975
 20
0.075
 11
-15.975
 21
7.05
  0
LINE
  8
ゴム等
 10
-17.175
 20
-1.125
 11
-17.175
 21
8.1
  0
LINE
  8
ゴム等
 10
-18.375
 20
-1.875
 11
-18.375
 21
6.9
  0
LINE
  8
ゴム等
 10
-19.575
 20
-0.675
 11
-19.5
 21
5.625
  0
LINE
  8
ゴム等
 10
-20.775
 20
0.525
 11
-20.775
 21
4.5
  0
LINE
  8
ゴム等
 10
-21.975
 20
1.725
 11
-21.975
 21
3.3
  0
ENDBLK
  0
BLOCK
  2
*HAT_0004
 70
    65
 10
0.0
 20
0.0
  0
LINE
  8
ゴム等
 62
    63
 10
-12.75
 20
-17.55
 11
-6.6
 21
-11.4
  0
LINE
  8
ゴム等
 62
    63
 10
-14.625
 20
-17.55
 11
-7.575
 21
-10.5
  0
LINE
  8
ゴム等
 62
    63
 10
-16.5
 20
-17.55
 11
-8.475
 21
-9.525
  0
LINE
  8
ゴム等
 62
    63
 10
-18.375
 20
-17.55
 11
-9.45
 21
-8.55
  0
LINE
  8
ゴム等
 62
    63
 10
-21.825
 20
-19.05
 11
-21.075
 21
-18.3
  0
LINE
  8
ゴム等
 62
    63
 10
-20.325
 20
-17.55
 11
-10.425
 21
-7.65
  0
LINE
  8
ゴム等
 62
    63
 10
-23.7
 20
-19.05
 11
-11.325
 21
-6.675
  0
LINE
  8
ゴム等
 62
    63
 10
-25.575
 20
-19.05
 11
-12.225
 21
-5.775
  0
LINE
  8
ゴム等
 62
    63
 10
-26.7
 20
-18.3
 11
-13.2
 21
-4.8
  0
LINE
  8
ゴム等
 62
    63
 10
-26.7
 20
-16.425
 11
-14.175
 21
-3.9
  0
LINE
  8
ゴム等
 62
    63
 10
-26.7
 20
-14.55
 11
-15.075
 21
-2.925
  0
ENDBLK
  0
BLOCK
  2
*HAT_0005
 70
    65
 10
0.0
 20
0.0
  0
LINE
  8
その他部品等
 10
-35.7
 20
-13.5
 11
-28.65
 21
-6.375
  0
LINE
  8
その他部品等
 10
-36.375
 20
-12.75
 11
-29.325
 21
-5.7
  0
LINE
  8
その他部品等
 10
-37.125
 20
-12.075
 11
-30.075
 21
-4.95
  0
LINE
  8
その他部品等
 10
-37.8
 20
-11.325
 11
-30.75
 21
-4.275
  0
LINE
  8
その他部品等
 10
-37.95
 20
-10.5
 11
-34.8
 21
-13.725
  0
LINE
  8
その他部品等
 10
-37.275
 20
-9.825
 11
-34.05
 21
-12.975
  0
LINE
  8
その他部品等
 10
-36.525
 20
-9.15
 11
-33.375
 21
-12.3
  0
LINE
  8
その他部品等
 10
-35.85
 20
-8.4
 11
-32.7
 21
-11.55
  0
LINE
  8
その他部品等
 10
-35.1
 20
-7.725
 11
-31.95
 21
-10.875
  0
LINE
  8
その他部品等
 10
-34.425
 20
-6.975
 11
-31.275
 21
-10.125
  0
LINE
  8
その他部品等
 10
-33.75
 20
-6.3
 11
-30.525
 21
-9.45
  0
LINE
  8
その他部品等
 10
-33.0
 20
-5.55
 11
-29.85
 21
-8.775
  0
LINE
  8
その他部品等
 10
-32.325
 20
-4.875
 11
-29.175
 21
-8.025
  0
LINE
  8
その他部品等
 10
-31.575
 20
-4.2
 11
-28.425
 21
-7.35
  0
ENDBLK
  0
BLOCK
  2
*HAT_0006
 70
    65
 10
0.0
 20
0.0
  0
LINE
  8
その他部品等
 10
-12.825
 20
-5.175
 11
2.55
 21
10.2
  0
LINE
  8
その他部品等
 10
-13.575
 20
-4.425
 11
1.275
 21
10.425
  0
LINE
  8
その他部品等
 10
-14.25
 20
-3.75
 11
-0.075
 21
10.425
  0
LINE
  8
その他部品等
 10
-15.0
 20
-3.075
 11
-1.5
 21
10.425
  0
LINE
  8
その他部品等
 10
-15.675
 20
-2.325
 11
-2.925
 21
10.425
  0
LINE
  8
その他部品等
 10
-16.35
 20
-1.65
 11
-4.35
 21
10.425
  0
LINE
  8
その他部品等
 10
-17.1
 20
-0.975
 11
-5.775
 21
10.425
  0
LINE
  8
その他部品等
 10
-12.15
 20
5.4
 11
-7.2
 21
10.425
  0
LINE
  8
その他部品等
 10
-12.825
 20
6.15
 11
-8.55
 21
10.425
  0
LINE
  8
その他部品等
 10
-13.575
 20
6.825
 11
-9.975
 21
10.425
  0
LINE
  8
その他部品等
 10
-14.25
 20
7.575
 11
-11.4
 21
10.425
  0
LINE
  8
その他部品等
 10
-14.925
 20
8.25
 11
-12.825
 21
10.425
  0
LINE
  8
その他部品等
 10
-15.675
 20
9.0
 11
-14.25
 21
10.425
  0
LINE
  8
その他部品等
 10
-16.35
 20
9.675
 11
-15.675
 21
10.425
  0
LINE
  8
その他部品等
 10
-17.1
 20
10.35
 11
-17.025
 21
10.425
  0
LINE
  8
その他部品等
 10
-16.575
 20
-0.375
 11
-11.925
 21
-4.95
  0
LINE
  8
その他部品等
 10
-15.825
 20
0.375
 11
-11.25
 21
-4.2
  0
LINE
  8
その他部品等
 10
-15.15
 20
1.05
 11
-10.575
 21
-3.525
  0
LINE
  8
その他部品等
 10
-14.4
 20
1.725
 11
-9.9
 21
-2.775
  0
LINE
  8
その他部品等
 10
-13.725
 20
2.475
 11
-9.225
 21
-2.025
  0
LINE
  8
その他部品等
 10
-12.975
 20
3.15
 11
-8.475
 21
-1.35
  0
LINE
  8
その他部品等
 10
-12.3
 20
3.9
 11
-7.8
 21
-0.6
  0
LINE
  8
その他部品等
 10
-11.625
 20
4.575
 11
-7.125
 21
0.075
  0
LINE
  8
その他部品等
 10
-15.975
 20
10.425
 11
-6.45
 21
0.825
  0
LINE
  8
その他部品等
 10
-14.625
 20
10.425
 11
-5.775
 21
1.575
  0
LINE
  8
その他部品等
 10
-13.2
 20
10.425
 11
-5.025
 21
2.25
  0
LINE
  8
その他部品等
 10
-11.775
 20
10.425
 11
-4.35
 21
3.0
  0
LINE
  8
その他部品等
 10
-10.35
 20
10.425
 11
-3.675
 21
3.75
  0
LINE
  8
その他部品等
 10
-8.925
 20
10.425
 11
-3.0
 21
4.425
  0
LINE
  8
その他部品等
 10
-7.5
 20
10.425
 11
-2.325
 21
5.175
  0
LINE
  8
その他部品等
 10
-6.15
 20
10.425
 11
-1.575
 21
5.85
  0
LINE
  8
その他部品等
 10
-4.725
 20
10.425
 11
-0.9
 21
6.6
  0
LINE
  8
その他部品等
 10
-3.3
 20
10.425
 11
-0.225
 21
7.35
  0
LINE
  8
その他部品等
 10
-1.875
 20
10.425
 11
0.45
 21
8.025
  0
LINE
  8
その他部品等
 10
-0.45
 20
10.425
 11
1.125
 21
8.775
  0
LINE
  8
その他部品等
 10
0.975
 20
10.425
 11
1.875
 21
9.525
  0
LINE
  8
その他部品等
 10
2.325
 20
10.425
 11
2.55
 21
10.2
  0
ENDBLK
  0
BLOCK
  2
*HAT_0007
 70
    65
 10
0.0
 20
0.0
  0
LINE
  8
その他部品等
 10
-2.925
 20
10.35
 11
-2.925
 21
10.35
  0
LINE
  8
その他部品等
 10
-4.35
 20
10.35
 11
-3.675
 21
11.1
  0
LINE
  8
その他部品等
 10
-5.775
 20
10.35
 11
-4.35
 21
11.775
  0
LINE
  8
その他部品等
 10
-7.2
 20
10.35
 11
-5.025
 21
12.525
  0
LINE
  8
その他部品等
 10
-8.625
 20
10.35
 11
-5.775
 21
13.2
  0
LINE
  8
その他部品等
 10
-9.975
 20
10.35
 11
-6.45
 21
13.95
  0
LINE
  8
その他部品等
 10
-11.4
 20
10.425
 11
-7.2
 21
14.625
  0
LINE
  8
その他部品等
 10
-12.825
 20
10.425
 11
-7.875
 21
15.3
  0
LINE
  8
その他部品等
 10
-14.25
 20
10.425
 11
-8.625
 21
16.05
  0
LINE
  8
その他部品等
 10
-15.675
 20
10.425
 11
-9.3
 21
16.725
  0
LINE
  8
その他部品等
 10
-17.025
 20
10.425
 11
-9.975
 21
17.475
  0
LINE
  8
その他部品等
 10
-16.575
 20
10.95
 11
-15.975
 21
10.425
  0
LINE
  8
その他部品等
 10
-15.825
 20
11.625
 11
-14.55
 21
10.425
  0
LINE
  8
その他部品等
 10
-15.15
 20
12.375
 11
-13.2
 21
10.425
  0
LINE
  8
その他部品等
 10
-14.4
 20
13.05
 11
-11.775
 21
10.425
  0
LINE
  8
その他部品等
 10
-13.725
 20
13.8
 11
-10.35
 21
10.425
  0
LINE
  8
その他部品等
 10
-13.05
 20
14.475
 11
-8.925
 21
10.425
  0
LINE
  8
その他部品等
 10
-12.3
 20
15.15
 11
-7.5
 21
10.35
  0
LINE
  8
その他部品等
 10
-11.625
 20
15.9
 11
-6.075
 21
10.35
  0
LINE
  8
その他部品等
 10
-10.875
 20
16.575
 11
-4.725
 21
10.35
  0
LINE
  8
その他部品等
 10
-10.2
 20
17.325
 11
-3.3
 21
10.35
  0
ENDBLK
  0
BLOCK
  2
*GRP_0001
 70
    65
 10
0.0
 20
0.0
  0
LINE
  8
型材断面
  6
CONTINUOUS
 10
195.0
 20
133.5
 11
195.0
 21
-133.5
  0
LINE
  8
型材断面
  6
CONTINUOUS
 10
195.0
 20
-133.5
 11
-185.0
 21
-133.5
  0
LINE
  8
型材断面
  6
CONTINUOUS
 10
-185.0
 20
-133.5
 11
-185.0
 21
133.5
  0
LINE
  8
型材断面
  6
CONTINUOUS
 10
195.0
 20
133.5
 11
-185.0
 21
133.5
  0
LINE
  8
型材断面
  6
CONTINUOUS
 10
145.0
 20
-133.5
 11
145.0
 21
-118.5
  0
LINE
  8
型材断面
  6
CONTINUOUS
 10
195.0
 20
-118.5
 11
145.0
 21
-118.5
  0
ENDBLK
  0
BLOCK
  2
*GRP_0002
 70
    65
 10
0.0
 20
0.0
  0
LINE
  8
通り芯
  6
CONTINUOUS
 10
-56.64023
 20
-41.537482
 11
-56.64023
 21
-40.037482
  0
ARC
  8
通り芯
  6
CONTINUOUS
 10
-45.740233
 20
-41.537485
 40
1.5
 50
45.0
 51
90.0
  0
ARC
  8
通り芯
  6
CONTINUOUS
 10
-43.618912
 20
-41.537485
 40
1.5
 50
225.0
 51
270.0
  0
LINE
  8
通り芯
  6
CONTINUOUS
 10
-45.740233
 20
-41.537482
 11
-44.240233
 21
-43.037482
  0
LINE
  8
通り芯
  6
CONTINUOUS
 10
-43.61891
 20
-41.537482
 11
-45.11891
 21
-40.037482
  0
LINE
  8
型材断面
  6
CONTINUOUS
 62
    15
 10
-32.740228
 20
-41.537482
 11
-32.740228
 21
-43.037482
  0
LINE
  8
型材断面
  6
CONTINUOUS
 62
    15
 10
-56.64023
 20
-41.537482
 11
-45.740233
 21
-41.537482
  0
LINE
  8
型材断面
  6
CONTINUOUS
 62
    15
 10
-32.740228
 20
-41.537482
 11
-43.61891
 21
-41.537482
  0
LINE
  8
型材断面
  6
CONTINUOUS
 62
    15
 10
-32.740228
 20
-43.037482
 11
-44.240233
 21
-43.037482
  0
LINE
  8
型材断面
  6
CONTINUOUS
 62
    15
 10
-56.64023
 20
-40.037482
 11
-45.11891
 21
-40.037482
  0
ENDBLK
  0
BLOCK
  2
*GRP_0003
 70
    65
 10
0.0
 20
0.0
  0
LINE
  8
型材断面
  6
CONTINUOUS
 10
-22.819243
 20
-10.09815
 11
-31.758583
 21
-19.037482
  0
ARC
  8
型材断面
  6
CONTINUOUS
 10
-31.758575
 20
-19.03749
 40
1.5
 50
134.999994
 51
270.0
  0
LINE
  8
型材断面
  6
CONTINUOUS
 10
-29.89031
 20
-15.047895
 11
-28.829652
 21
-16.108553
  0
LINE
  8
型材断面
  6
CONTINUOUS
 10
-27.06188
 20
-12.219465
 11
-26.001223
 21
-13.28013
  0
LINE
  8
型材断面
  6
CONTINUOUS
 10
-26.796717
 20
-12.484635
 11
-29.625148
 21
-15.313058
  0
LINE
  8
型材断面
  6
CONTINUOUS
 10
-26.531548
 20
-12.749798
 11
-29.359977
 21
-15.578227
  0
LINE
  8
型材断面
  6
CONTINUOUS
 10
-26.266385
 20
-13.01496
 11
-29.094815
 21
-15.84339
  0
LINE
  8
型材断面
  6
CONTINUOUS
 10
-23.8799
 20
-9.037485
 11
-22.819243
 21
-10.09815
  0
LINE
  8
型材断面
  6
CONTINUOUS
 10
-23.8799
 20
-9.037485
 11
-35.379905
 21
-20.537482
  0
LINE
  8
型材断面
  6
CONTINUOUS
 10
-29.64026
 20
-19.037482
 11
-29.64026
 21
-20.537482
  0
LINE
  8
型材断面
  6
CONTINUOUS
 10
-21.640258
 20
-19.412482
 11
-29.64026
 21
-19.412482
  0
LINE
  8
型材断面
  6
CONTINUOUS
 10
-21.640258
 20
-19.787482
 11
-29.64026
 21
-19.787482
  0
LINE
  8
型材断面
  6
CONTINUOUS
 10
-21.640258
 20
-20.162482
 11
-29.64026
 21
-20.162482
  0
LINE
  8
型材断面
  6
CONTINUOUS
 10
-35.379905
 20
-20.537482
 11
-21.640258
 21
-20.537482
  0
LINE
  8
型材断面
  6
CONTINUOUS
 10
-21.640258
 20
-19.037482
 11
-21.640258
 21
-32.537482
  0
ARC
  8
型材断面
  6
CONTINUOUS
 10
-21.640259
 20
-20.53749
 40
1.5
 50
0.0
 51
90.0
  0
ARC
  8
型材断面
  6
CONTINUOUS
 10
-21.640259
 20
-31.03749
 40
1.5
 50
-90.0
 51
0.0
  0
LINE
  8
型材断面
  6
CONTINUOUS
 10
-31.758583
 20
-19.037482
 11
-20.140258
 21
-19.037482
  0
LINE
  8
型材断面
  6
CONTINUOUS
 10
-20.140258
 20
-32.537482
 11
-20.140258
 21
-19.037482
  0
LINE
  8
型材断面
  6
CONTINUOUS
 10
-21.640258
 20
-31.037482
 11
-28.14026
 21
-31.037482
  0
LINE
  8
型材断面
  6
CONTINUOUS
 10
-21.640258
 20
-31.412482
 11
-28.14026
 21
-31.412482
  0
LINE
  8
型材断面
  6
CONTINUOUS
 10
-21.640258
 20
-31.787482
 11
-28.14026
 21
-31.787482
  0
LINE
  8
型材断面
  6
CONTINUOUS
 10
-21.640258
 20
-32.162482
 11
-28.14026
 21
-32.162482
  0
LINE
  8
型材断面
  6
CONTINUOUS
 10
-20.140258
 20
-32.537482
 11
-28.14026
 21
-32.537482
  0
LINE
  8
型材断面
  6
CONTINUOUS
 10
-28.14026
 20
-32.537482
 11
-28.14026
 21
-31.037482
  0
ENDBLK
  0
BLOCK
  2
*GRP_0004
 70
    65
 10
0.0
 20
0.0
  0
LINE
  8
型材断面
  6
CONTINUOUS
 10
-20.140258
 20
-22.037482
 11
-18.640258
 21
-22.037482
  0
LINE
  8
型材断面
  6
CONTINUOUS
 62
    47
 10
-11.449535
 20
-17.537482
 11
-7.535322
 21
-13.62327
  0
LINE
  8
型材断面
  6
CONTINUOUS
 62
    47
 10
-9.060448
 20
-15.148395
 11
-7.99979
 21
-16.209052
  0
LINE
  8
型材断面
  6
CONTINUOUS
 62
    47
 10
-11.449535
 20
-17.537482
 11
-1.74746
 21
-7.835408
  0
LINE
  8
型材断面
  6
CONTINUOUS
 62
    47
 10
-10.828212
 20
-19.037482
 11
-0.686795
 21
-8.896065
  0
LINE
  8
型材断面
  6
CONTINUOUS
 10
-1.74746
 20
-7.835408
 11
-0.686795
 21
-8.896065
  0
ARC
  8
型材断面
  6
CONTINUOUS
 10
-18.640259
 20
-19.03749
 40
1.5
 50
90.0
 51
180.0
  0
LINE
  8
型材断面
  6
CONTINUOUS
 10
-20.140258
 20
-29.537482
 11
-20.140258
 21
-17.537482
  0
LINE
  8
型材断面
  6
CONTINUOUS
 62
    47
 10
-11.449535
 20
-17.537482
 11
-20.140258
 21
-17.537482
  0
LINE
  8
型材断面
  6
CONTINUOUS
 62
    47
 10
-18.640258
 20
-29.537482
 11
-18.640258
 21
-19.037482
  0
LINE
  8
型材断面
  6
CONTINUOUS
 10
-20.140258
 20
-29.537482
 11
-18.640258
 21
-29.537482
  0
LINE
  8
型材断面
  6
CONTINUOUS
 62
    47
 10
-10.828212
 20
-19.037482
 11
-18.640258
 21
-19.037482
  0
INSERT
  2
*HAT_0001
  8
型材断面
 10
0.0
 20
0.0
  0
LINE
  8
型材断面
  6
CONTINUOUS
 10
-20.140258
 20
-27.53748
 11
-18.640258
 21
-27.53748
  0
LINE
  8
型材断面
  6
CONTINUOUS
 10
-20.140258
 20
-19.537485
 11
-18.640258
 21
-19.537485
  0
LINE
  8
型材断面
  6
CONTINUOUS
 10
-19.765258
 20
-19.537485
 11
-19.765258
 21
-27.53748
  0
LINE
  8
型材断面
  6
CONTINUOUS
 10
-19.390258
 20
-19.537485
 11
-19.390258
 21
-27.53748
  0
LINE
  8
型材断面
  6
CONTINUOUS
 10
-19.015258
 20
-19.537485
 11
-19.015258
 21
-27.53748
  0
ENDBLK
  0
BLOCK
  2
*GRP_0005
 70
    65
 10
0.0
 20
0.0
  0
LINE
  8
ゴム等
  6
CONTINUOUS
 62
    63
 10
-0.686795
 20
-8.896065
 11
-1.74746
 21
-7.835408
  0
LINE
  8
ゴム等
  6
CONTINUOUS
 62
    63
 10
0.727412
 20
-7.48185
 11
-2.454568
 21
-4.29987
  0
LINE
  8
ゴム等
  6
CONTINUOUS
 62
    63
 10
-7.404313
 20
-9.249615
 11
-5.28299
 21
-11.370938
  0
LINE
  8
ゴム等
  6
CONTINUOUS
 62
    63
 10
-2.454568
 20
-4.29987
 11
-7.404313
 21
-9.249615
  0
LINE
  8
ゴム等
  6
CONTINUOUS
 62
    63
 10
0.727412
 20
-7.48185
 11
-0.686795
 21
-8.896065
  0
LINE
  8
ゴム等
  6
CONTINUOUS
 62
    63
 10
-1.74746
 20
-7.835408
 11
-5.28299
 21
-11.370938
  0
INSERT
  2
*HAT_0002
  8
ゴム等
 10
0.0
 20
0.0
  0
ENDBLK
  0
BLOCK
  2
*GRP_0006
 70
    65
 10
0.0
 20
0.0
  0
LINE
  8
型材断面
  6
CONTINUOUS
 62
    47
 10
13.15978
 20
-19.037482
 11
13.15978
 21
-20.537482
  0
LINE
  8
型材断面
  6
CONTINUOUS
 62
    47
 10
21.159775
 20
-19.037482
 11
21.159775
 21
-20.537482
  0
LINE
  8
型材断面
  6
CONTINUOUS
 62
    47
 10
21.159775
 20
-19.412482
 11
13.15978
 21
-19.412482
  0
LINE
  8
型材断面
  6
CONTINUOUS
 62
    47
 10
21.159775
 20
-20.162482
 11
13.15978
 21
-20.162482
  0
LINE
  8
型材断面
  6
CONTINUOUS
 62
    47
 10
21.159775
 20
-19.787482
 11
13.15978
 21
-19.787482
  0
LINE
  8
型材断面
  6
DASHDOT
 62
    47
 10
17.159778
 20
-23.149838
 11
17.159778
 21
-16.64901
  0
LINE
  8
型材断面
  6
CONTINUOUS
 62
    47
 10
-57.740262
 20
-44.537482
 11
-57.740262
 21
-55.537485
  0
ARC
  8
型材断面
  6
CONTINUOUS
 62
    47
 10
-31.240231
 20
-34.037492
 40
1.5
 50
90.0
 51
180.0
  0
ARC
  8
型材断面
  6
CONTINUOUS
 62
    47
 10
-32.740231
 20
-43.037492
 40
1.5
 50
-90.0
 51
0.0
  0
ARC
  8
型材断面
  6
CONTINUOUS
 62
    47
 10
-57.740261
 20
-44.537492
 40
1.5
 50
90.0
 51
180.0
  0
ARC
  8
型材断面
  6
CONTINUOUS
 62
    47
 10
-57.740261
 20
-55.537492
 40
1.5
 50
180.0
 51
270.0
  0
ARC
  8
型材断面
  6
CONTINUOUS
 62
    47
 10
-45.740261
 20
-57.037492
 40
1.5
 50
0.0
 51
90.0
  0
LINE
  8
型材断面
  6
CONTINUOUS
 62
    47
 10
-45.740262
 20
-57.037485
 11
-59.240262
 21
-57.037485
  0
LINE
  8
型材断面
  6
CONTINUOUS
 62
    47
 10
-57.740262
 20
-55.537485
 11
-44.240262
 21
-55.537485
  0
LINE
  8
型材断面
  6
CONTINUOUS
 62
    47
 10
-31.240235
 20
-34.037482
 11
-31.240235
 21
-44.537482
  0
LINE
  8
型材断面
  6
CONTINUOUS
 62
    47
 10
-57.740262
 20
-44.537482
 11
-31.240235
 21
-44.537482
  0
LINE
  8
型材断面
  6
CONTINUOUS
 62
    47
 10
-32.740235
 20
-43.037482
 11
-32.740235
 21
-32.537482
  0
LINE
  8
型材断面
  6
CONTINUOUS
 62
    47
 10
-32.740235
 20
-32.537482
 11
-18.640265
 21
-32.537482
  0
ARC
  8
型材断面
  6
CONTINUOUS
 62
    47
 10
-17.140262
 20
-20.537491
 40
1.5
 50
90.0
 51
180.0
  0
ARC
  8
型材断面
  6
CONTINUOUS
 62
    47
 10
-18.640262
 20
-32.537491
 40
1.5
 50
-90.0
 51
0.0
  0
LINE
  8
型材断面
  6
CONTINUOUS
 62
    47
 10
-59.240262
 20
-57.037485
 11
-59.240262
 21
-43.037482
  0
LINE
  8
型材断面
  6
CONTINUOUS
 62
    47
 10
-32.740235
 20
-43.037482
 11
-59.240262
 21
-43.037482
  0
LINE
  8
型材断面
  6
CONTINUOUS
 62
    47
 10
-31.240235
 20
-34.037482
 11
-17.140265
 21
-34.037482
  0
LINE
  8
型材断面
  6
CONTINUOUS
 62
    47
 10
-17.140265
 20
-20.537482
 11
-17.140265
 21
-34.037482
  0
LINE
  8
型材断面
  6
CONTINUOUS
 62
    47
 10
-18.640265
 20
-32.537482
 11
-18.640265
 21
-19.037482
  0
LINE
  8
型材断面
  6
CONTINUOUS
 62
    47
 10
-18.640265
 20
-19.037482
 11
82.25974
 21
-19.037482
  0
ARC
  8
型材断面
  6
CONTINUOUS
 62
    47
 10
82.259738
 20
-19.03749
 40
1.5
 50
-90.0
 51
0.0
  0
LINE
  8
型材断面
  6
CONTINUOUS
 62
    47
 10
-17.140265
 20
-20.537482
 11
83.75974
 21
-20.537482
  0
LINE
  8
型材断面
  6
CONTINUOUS
 62
    47
 10
-44.240262
 20
-55.537485
 11
-44.240262
 21
-65.537482
  0
LINE
  8
型材断面
  6
CONTINUOUS
 10
-44.240262
 20
-65.537482
 11
-45.740262
 21
-65.537482
  0
LINE
  8
型材断面
  6
CONTINUOUS
 62
    47
 10
-45.740262
 20
-57.037485
 11
-45.740262
 21
-65.537482
  0
LINE
  8
型材断面
  6
CONTINUOUS
 62
    47
 10
83.75974
 20
-20.537482
 11
83.75974
 21
-0.53748
  0
LINE
  8
型材断面
  6
CONTINUOUS
 62
    47
 10
82.25974
 20
-19.037482
 11
82.25974
 21
-0.53748
  0
LINE
  8
型材断面
  6
CONTINUOUS
 10
83.75974
 20
-0.53748
 11
82.25974
 21
-0.53748
  0
ENDBLK
  0
BLOCK
  2
*GRP_0007
 70
    65
 10
0.0
 20
0.0
  0
LINE
  8
ゴム等
  6
CONTINUOUS
 10
-22.819243
 20
2.629777
 11
-17.16239
 21
8.28663
  0
LINE
  8
ゴム等
  6
CONTINUOUS
 10
-17.16239
 20
8.28663
 11
-12.566195
 21
3.690435
  0
LINE
  8
ゴム等
  6
CONTINUOUS
 10
-12.566195
 20
3.690435
 11
-18.223055
 21
-1.966425
  0
LINE
  8
ゴム等
  6
CONTINUOUS
 10
-22.819243
 20
2.629777
 11
-18.223055
 21
-1.966425
  0
INSERT
  2
*HAT_0003
  8
ゴム等
 10
0.0
 20
0.0
  0
ENDBLK
  0
BLOCK
  2
*GRP_0008
 70
    65
 10
0.0
 20
0.0
  0
LINE
  8
ゴム等
  6
CONTINUOUS
 10
-5.990097
 20
-12.078045
 11
-15.394618
 21
-2.673525
  0
LINE
  8
ゴム等
  6
CONTINUOUS
 10
-26.758572
 20
-14.03748
 11
-26.758572
 21
-19.037482
  0
LINE
  8
ゴム等
  6
CONTINUOUS
 10
-15.394618
 20
-2.673525
 11
-26.758572
 21
-14.03748
  0
LINE
  8
ゴム等
  6
CONTINUOUS
 10
-21.140255
 20
-17.537482
 11
-21.140255
 21
-19.037482
  0
POLYLINE
  8
ゴム等
  6
CONTINUOUS
 66
     1
  0
VERTEX
  8
ゴム等
 10
-21.140255
 20
-17.537482
  0
VERTEX
  8
ゴム等
 10
-11.449528
 20
-17.537482
  0
VERTEX
  8
ゴム等
 10
-5.990097
 20
-12.078045
  0
SEQEND
  0
LINE
  8
ゴム等
  6
CONTINUOUS
 10
-26.758572
 20
-19.037482
 11
-21.140255
 21
-19.037482
  0
INSERT
  2
*HAT_0004
  8
ゴム等
 10
0.0
 20
0.0
  0
ENDBLK
  0
BLOCK
  2
*GRP_0009
 70
    65
 10
0.0
 20
0.0
  0
LINE
  8
ボルト／ビス
  6
CONTINUOUS
 10
-27.06188
 20
-10.098142
 11
-27.867882
 21
-9.421822
  0
ARC
  8
ボルト／ビス
  6
CONTINUOUS
 10
-28.960625
 20
-10.724107
 40
1.7
 50
49.999982
 51
134.999993
  0
LINE
  8
ボルト／ビス
  6
CONTINUOUS
 10
-30.162702
 20
-9.522015
 11
-31.375227
 21
-10.73454
  0
LINE
  8
ボルト／ビス
  6
CONTINUOUS
 10
-32.011625
 20
-15.047895
 11
-32.687945
 21
-14.241885
  0
ARC
  8
ボルト／ビス
  6
CONTINUOUS
 10
-31.385672
 20
-13.149153
 40
1.7
 50
134.999993
 51
220.000004
  0
LINE
  8
ボルト／ビス
  6
CONTINUOUS
 10
-32.587752
 20
-11.947065
 11
-31.375227
 21
-10.73454
  0
LINE
  8
ボルト／ビス
  6
CONTINUOUS
 10
-29.408382
 20
-9.31203
 11
-29.579615
 21
-9.140798
  0
LINE
  8
ボルト／ビス
  6
CONTINUOUS
 10
-30.148408
 20
-10.971413
 11
-30.643385
 21
-11.46639
  0
LINE
  8
ボルト／ビス
  6
CONTINUOUS
 10
-30.325242
 20
-10.22889
 11
-29.408382
 21
-9.31203
  0
LINE
  8
ボルト／ビス
  6
CONTINUOUS
 10
-30.148408
 20
-10.971413
 11
-30.325242
 21
-10.794578
  0
ARC
  8
ボルト／ビス
  6
CONTINUOUS
 10
-30.042401
 20
-10.511743
 40
0.4
 50
134.999993
 51
224.999993
  0
LINE
  8
ボルト／ビス
  6
CONTINUOUS
 10
-32.797738
 20
-12.701393
 11
-32.968977
 21
-12.530152
  0
LINE
  8
ボルト／ビス
  6
CONTINUOUS
 10
-31.138355
 20
-11.96136
 11
-30.643385
 21
-11.46639
  0
LINE
  8
ボルト／ビス
  6
CONTINUOUS
 10
-31.880878
 20
-11.784525
 11
-32.797738
 21
-12.701393
  0
LINE
  8
ボルト／ビス
  6
CONTINUOUS
 10
-31.138355
 20
-11.96136
 11
-31.31519
 21
-11.784525
  0
ARC
  8
ボルト／ビス
  6
CONTINUOUS
 10
-31.598036
 20
-12.067378
 40
0.4
 50
44.999993
 51
134.999993
  0
LINE
  8
ボルト／ビス
  6
CONTINUOUS
 10
-27.06188
 20
-10.098142
 11
-32.011625
 21
-15.047895
  0
LINE
  8
ボルト／ビス
  6
CONTINUOUS
 10
-32.769207
 20
-9.34056
 11
-22.288558
 21
-19.821217
  0
LINE
  8
ボルト／ビス
  6
CONTINUOUS
 10
-24.23345
 20
-15.047895
 11
-24.23345
 21
-15.755002
  0
LINE
  8
ボルト／ビス
  6
CONTINUOUS
 10
-27.06188
 20
-17.876318
 11
-26.354773
 21
-17.876318
  0
LINE
  8
ボルト／ビス
  6
CONTINUOUS
 10
-24.23345
 20
-15.047895
 11
-27.06188
 21
-17.876318
  0
LINE
  8
ボルト／ビス
  6
CONTINUOUS
 10
-24.23345
 20
-15.755002
 11
-26.354773
 21
-17.876318
  0
LINE
  8
ボルト／ビス
  6
CONTINUOUS
 10
-28.476087
 20
-11.512357
 11
-24.23345
 21
-15.755002
  0
LINE
  8
ボルト／ビス
  6
CONTINUOUS
 10
-30.59741
 20
-13.63368
 11
-26.354773
 21
-17.876318
  0
LINE
  8
ボルト／ビス
  6
CONTINUOUS
 10
-30.950968
 20
-13.98723
 11
-27.06188
 21
-17.876318
  0
LINE
  8
ボルト／ビス
  6
CONTINUOUS
 10
-28.122538
 20
-11.158807
 11
-24.23345
 21
-15.047895
  0
ENDBLK
  0
BLOCK
  2
*GRP_0010
 70
    65
 10
0.0
 20
0.0
  0
LINE
  8
通り芯
  6
CONTINUOUS
 10
-46.240258
 20
-41.537482
 11
-46.240258
 21
-32.537482
  0
LINE
  8
通り芯
  6
CONTINUOUS
 10
-57.740262
 20
-32.537482
 11
-46.240258
 21
-32.537482
  0
LINE
  8
通り芯
  6
CONTINUOUS
 10
-56.240262
 20
-32.537482
 11
-56.240262
 21
-41.537482
  0
LINE
  8
通り芯
  6
DOT
 10
-47.740258
 20
-41.537482
 11
-47.740258
 21
-32.537482
  0
POINT
  8
通り芯
 10
-54.66266
 20
-33.952575
  0
POINT
  8
通り芯
 10
-53.994005
 20
-36.460035
  0
POINT
  8
通り芯
 10
-51.263652
 20
-34.955558
  0
POINT
  8
通り芯
 10
-50.204953
 20
-37.741627
  0
POINT
  8
通り芯
 10
-52.879572
 20
-38.74461
  0
POINT
  8
通り芯
 10
-54.439775
 20
-40.63914
  0
POINT
  8
通り芯
 10
-50.09351
 20
-40.750583
  0
POINT
  8
通り芯
 10
-48.811917
 20
-35.624212
  0
POINT
  8
通り芯
 10
-49.201962
 20
-33.785408
  0
ENDBLK
  0
BLOCK
  2
*GRP_0011
 70
    65
 10
0.0
 20
0.0
  0
LINE
  8
ボルト／ビス
  6
CONTINUOUS
 10
23.41441
 20
-25.687485
 11
24.665335
 21
-25.232183
  0
ARC
  8
ボルト／ビス
  6
CONTINUOUS
 10
22.788945
 20
-21.59332
 40
4.09417
 50
242.722034
 51
270.0
  0
LINE
  8
ボルト／ビス
  6
CONTINUOUS
 10
10.905153
 20
-25.687485
 11
9.654227
 21
-25.232183
  0
ARC
  8
ボルト／ビス
  6
CONTINUOUS
 10
11.53061
 20
-21.59332
 40
4.09417
 50
270.0
 51
297.277966
  0
ARC
  8
ボルト／ビス
  6
CONTINUOUS
 10
17.159777
 20
-9.993757
 40
15.693732
 50
256.165046
 51
283.834954
  0
LINE
  8
ボルト／ビス
  6
CONTINUOUS
 10
24.665335
 20
-20.537482
 11
24.665335
 21
-25.232183
  0
LINE
  8
ボルト／ビス
  6
CONTINUOUS
 10
9.654227
 20
-20.537482
 11
9.654227
 21
-25.232183
  0
LINE
  8
ボルト／ビス
  6
CONTINUOUS
 10
10.905153
 20
-25.687485
 11
23.41441
 21
-25.687485
  0
LINE
  8
ボルト／ビス
  6
CONTINUOUS
 10
13.407003
 20
-25.232183
 11
13.407003
 21
-20.537482
  0
LINE
  8
ボルト／ビス
  6
CONTINUOUS
 10
20.91256
 20
-25.232183
 11
20.91256
 21
-20.537482
  0
LINE
  8
ボルト／ビス
  6
CONTINUOUS
 10
13.15978
 20
-6.737482
 11
13.959783
 21
-5.537482
  0
LINE
  8
ボルト／ビス
  6
CONTINUOUS
 10
21.159783
 20
-6.737482
 11
20.35978
 21
-5.537482
  0
LINE
  8
ボルト／ビス
  6
CONTINUOUS
 10
13.959783
 20
-5.537482
 11
20.35978
 21
-5.537482
  0
LINE
  8
ボルト／ビス
  6
CONTINUOUS
 10
13.15978
 20
-6.737482
 11
21.159783
 21
-6.737482
  0
LINE
  8
ボルト／ビス
  6
CONTINUOUS
 10
17.159778
 20
-30.68748
 11
17.159778
 21
-0.53748
  0
LINE
  8
ボルト／ビス
  6
CONTINUOUS
 10
9.654227
 20
-20.537482
 11
24.665335
 21
-20.537482
  0
LINE
  8
ボルト／ビス
  6
CONTINUOUS
 10
20.35978
 20
-5.537482
 11
20.35978
 21
-20.537482
  0
LINE
  8
ボルト／ビス
  6
CONTINUOUS
 10
21.159783
 20
-6.737482
 11
21.159783
 21
-20.537482
  0
LINE
  8
ボルト／ビス
  6
CONTINUOUS
 10
13.15978
 20
-6.737482
 11
13.15978
 21
-20.537482
  0
LINE
  8
ボルト／ビス
  6
CONTINUOUS
 10
13.959783
 20
-5.537482
 11
13.959783
 21
-20.537482
  0
ENDBLK
  0
BLOCK
  2
*GRP_0012
 70
    65
 10
0.0
 20
0.0
  0
LINE
  8
ボルト／ビス
  6
CONTINUOUS
 10
10.905153
 20
-7.087478
 11
9.654227
 21
-7.542772
  0
ARC
  8
ボルト／ビス
  6
CONTINUOUS
 10
11.530609
 20
-11.181651
 40
4.09417
 50
62.722034
 51
90.0
  0
LINE
  8
ボルト／ビス
  6
CONTINUOUS
 10
23.41441
 20
-7.087478
 11
24.665335
 21
-7.542772
  0
ARC
  8
ボルト／ビス
  6
CONTINUOUS
 10
22.788944
 20
-11.181651
 40
4.09417
 50
90.0
 51
117.277966
  0
ARC
  8
ボルト／ビス
  6
CONTINUOUS
 10
17.159776
 20
-22.781214
 40
15.693732
 50
76.165046
 51
103.834954
  0
LINE
  8
ボルト／ビス
  6
CONTINUOUS
 10
9.654227
 20
-12.23748
 11
9.654227
 21
-7.542772
  0
LINE
  8
ボルト／ビス
  6
CONTINUOUS
 10
24.665335
 20
-12.23748
 11
24.665335
 21
-7.542772
  0
LINE
  8
ボルト／ビス
  6
CONTINUOUS
 10
23.41441
 20
-7.087478
 11
10.905153
 21
-7.087478
  0
LINE
  8
ボルト／ビス
  6
CONTINUOUS
 10
20.91256
 20
-7.542772
 11
20.91256
 21
-12.23748
  0
LINE
  8
ボルト／ビス
  6
CONTINUOUS
 10
13.407003
 20
-7.542772
 11
13.407003
 21
-12.23748
  0
LINE
  8
ボルト／ビス
  6
CONTINUOUS
 10
24.665335
 20
-12.23748
 11
9.654227
 21
-12.23748
  0
LINE
  8
ボルト／ビス
  6
CONTINUOUS
 10
8.409783
 20
-14.03748
 11
8.409783
 21
-15.037478
  0
LINE
  8
ボルト／ビス
  6
CONTINUOUS
 10
25.90978
 20
-14.03748
 11
25.90978
 21
-15.037478
  0
LINE
  8
ボルト／ビス
  6
CONTINUOUS
 10
8.409783
 20
-14.03748
 11
25.90978
 21
-14.03748
  0
LINE
  8
ボルト／ビス
  6
CONTINUOUS
 10
8.409783
 20
-15.037478
 11
25.90978
 21
-15.037478
  0
LINE
  8
ボルト／ビス
  6
CONTINUOUS
 10
17.159778
 20
-12.23748
 11
17.159778
 21
-14.03748
  0
LINE
  8
ボルト／ビス
  6
CONTINUOUS
 10
25.059783
 20
-12.23748
 11
25.059783
 21
-14.03748
  0
LINE
  8
ボルト／ビス
  6
CONTINUOUS
 10
9.25978
 20
-12.23748
 11
9.25978
 21
-14.03748
  0
LINE
  8
ボルト／ビス
  6
CONTINUOUS
 10
25.059783
 20
-12.23748
 11
9.25978
 21
-12.23748
  0
ENDBLK
  0
BLOCK
  2
*DIM_0013
 70
    65
 10
0.0
 20
0.0
  0
LINE
  8
寸法
  6
CONTINUOUS
 10
-50.740262
 20
-65.537482
 11
-107.00549
 21
-65.537482
  0
LINE
  8
寸法
  6
CONTINUOUS
 10
-64.240262
 20
-57.037485
 11
-107.00549
 21
-57.037485
  0
LINE
  8
寸法
  6
CONTINUOUS
 10
-107.00549
 20
-65.537482
 11
-107.00549
 21
-57.037485
  0
POINT
  8
寸法
 10
-107.00549
 20
-65.537482
  0
POINT
  8
寸法
 10
-107.00549
 20
-57.037485
  0
TEXT
  7
TextStyle03
  8
寸法
  6
CONTINUOUS
 10
-107.425
 20
-63.7375
  1
8.5
 40
3.0
 50
90.0
 72
     5
 11
-107.425
 21
-58.8625
  0
ENDBLK
  0
BLOCK
  2
*DIM_0014
 70
    65
 10
0.0
 20
0.0
  0
LINE
  8
寸法
  6
CONTINUOUS
 10
-22.16239
 20
10.407952
 11
-107.00549
 21
10.407952
  0
LINE
  8
寸法
  6
CONTINUOUS
 10
-107.00549
 20
-57.037485
 11
-107.00549
 21
10.407952
  0
POINT
  8
寸法
 10
-107.00549
 20
10.407952
  0
TEXT
  7
TextStyle03
  8
寸法
  6
CONTINUOUS
 10
-107.425
 20
-26.60625
  1
67.5
 40
3.0
 50
90.0
 72
     5
 11
-107.425
 21
-20.04375
  0
ENDBLK
  0
BLOCK
  2
*DIM_0015
 70
    65
 10
0.0
 20
0.0
  0
LINE
  8
寸法
  6
CONTINUOUS
 10
-64.240262
 20
-57.037485
 11
-96.75635
 21
-57.037485
  0
LINE
  8
寸法
  6
CONTINUOUS
 10
-64.240262
 20
-31.669913
 11
-96.75635
 21
-31.669913
  0
LINE
  8
寸法
  6
CONTINUOUS
 10
-96.75635
 20
-57.037485
 11
-96.75635
 21
-31.669913
  0
POINT
  8
寸法
 10
-96.75635
 20
-57.037485
  0
POINT
  8
寸法
 10
-96.75635
 20
-31.669913
  0
TEXT
  7
TextStyle03
  8
寸法
  6
CONTINUOUS
 10
-97.175
 20
-47.65625
  1
25.4
 40
3.0
 50
90.0
 72
     5
 11
-97.175
 21
-41.09375
  0
ENDBLK
  0
BLOCK
  2
*DIM_0016
 70
    65
 10
0.0
 20
0.0
  0
LINE
  8
寸法
  6
CONTINUOUS
 10
-22.16239
 20
10.407952
 11
-96.75635
 21
10.407952
  0
LINE
  8
寸法
  6
CONTINUOUS
 10
-96.75635
 20
-31.669913
 11
-96.75635
 21
10.407952
  0
POINT
  8
寸法
 10
-96.75635
 20
10.407952
  0
TEXT
  7
TextStyle03
  8
寸法
  6
CONTINUOUS
 10
-97.175
 20
-13.93125
  1
42.1
 40
3.0
 50
90.0
 72
     5
 11
-97.175
 21
-7.36875
  0
ENDBLK
  0
BLOCK
  2
*DIM_0017
 70
    65
 10
0.0
 20
0.0
  0
LINE
  8
寸法
  6
CONTINUOUS
 10
-59.240262
 20
-62.037485
 11
-59.240262
 21
-87.592105
  0
LINE
  8
寸法
  6
CONTINUOUS
 10
-45.740262
 20
-70.537482
 11
-45.740262
 21
-87.592105
  0
LINE
  8
寸法
  6
CONTINUOUS
 10
-59.240262
 20
-87.592105
 11
-45.740262
 21
-87.592105
  0
POINT
  8
寸法
 10
-59.240262
 20
-87.592105
  0
POINT
  8
寸法
 10
-45.740262
 20
-87.592105
  0
TEXT
  7
TextStyle03
  8
寸法
  6
CONTINUOUS
 10
-55.80625
 20
-87.225
  1
13.5
 40
3.0
 72
     5
 11
-49.24375
 21
-87.225
  0
ENDBLK
  0
BLOCK
  2
*DIM_0018
 70
    65
 10
0.0
 20
0.0
  0
LINE
  8
寸法
  6
CONTINUOUS
 10
83.75974
 20
-25.537482
 11
83.75974
 21
-87.592105
  0
LINE
  8
寸法
  6
CONTINUOUS
 10
-45.740262
 20
-87.592105
 11
83.75974
 21
-87.592105
  0
POINT
  8
寸法
 10
83.75974
 20
-87.592105
  0
TEXT
  7
TextStyle03
  8
寸法
  6
CONTINUOUS
 10
14.85
 20
-87.225
  1
129.5
 40
3.0
 72
     5
 11
23.1
 21
-87.225
  0
ENDBLK
  0
BLOCK
  2
*DIM_0019
 70
    65
 10
0.0
 20
0.0
  0
LINE
  8
寸法
  6
CONTINUOUS
 10
88.75974
 20
-20.537482
 11
125.770572
 21
-20.537482
  0
LINE
  8
寸法
  6
CONTINUOUS
 10
88.75974
 20
-0.53748
 11
125.770572
 21
-0.53748
  0
LINE
  8
寸法
  6
CONTINUOUS
 10
125.770572
 20
-20.537482
 11
125.770572
 21
-0.53748
  0
POINT
  8
寸法
 10
125.770572
 20
-20.537482
  0
POINT
  8
寸法
 10
125.770572
 20
-0.53748
  0
TEXT
  7
TextStyle03
  8
寸法
  6
CONTINUOUS
 10
125.35
 20
-12.14375
  1
20
 40
3.0
 50
90.0
 72
     5
 11
125.35
 21
-8.95625
  0
ENDBLK
  0
BLOCK
  2
*DIM_0020
 70
    65
 10
0.0
 20
0.0
  0
LINE
  8
寸法
  6
CONTINUOUS
 10
-59.240262
 20
-26.669913
 11
-59.240262
 21
36.85366
  0
LINE
  8
寸法
  6
CONTINUOUS
 10
-59.240262
 20
36.85366
 11
26.25974
 21
36.85366
  0
POINT
  8
寸法
 10
-59.240262
 20
36.85366
  0
POINT
  8
寸法
 10
26.25974
 20
36.85366
  0
TEXT
  7
TextStyle03
  8
寸法
  6
CONTINUOUS
 10
-19.80625
 20
37.225
  1
85.5
 40
3.0
 72
     5
 11
-13.24375
 21
37.225
  0
ENDBLK
  0
BLOCK
  2
*DIM_0021
 70
    65
 10
0.0
 20
0.0
  0
LINE
  8
寸法
  6
CONTINUOUS
 10
-59.240262
 20
-26.669913
 11
-59.240262
 21
30.0705
  0
LINE
  8
寸法
  6
CONTINUOUS
 10
83.75974
 20
4.46252
 11
83.75974
 21
30.0705
  0
LINE
  8
寸法
  6
CONTINUOUS
 10
-59.240262
 20
30.0705
 11
83.75974
 21
30.0705
  0
POINT
  8
寸法
 10
-59.240262
 20
30.0705
  0
POINT
  8
寸法
 10
83.75974
 20
30.0705
  0
TEXT
  7
TextStyle03
  8
寸法
  6
CONTINUOUS
 10
9.7875
 20
30.425
  1
143
 40
3.0
 72
     5
 11
14.6625
 21
30.425
  0
ENDBLK
  0
BLOCK
  2
*DIM_0022
 70
    65
 10
0.0
 20
0.0
  0
LINE
  8
寸法
  6
CONTINUOUS
 10
83.75974
 20
4.46252
 11
83.75974
 21
23.579478
  0
LINE
  8
寸法
  6
CONTINUOUS
 10
26.25974
 20
23.449887
 11
26.25974
 21
23.579478
  0
LINE
  8
寸法
  6
CONTINUOUS
 10
83.75974
 20
23.579478
 11
26.25974
 21
23.579478
  0
POINT
  8
寸法
 10
83.75974
 20
23.579478
  0
POINT
  8
寸法
 10
26.25974
 20
23.579478
  0
TEXT
  7
TextStyle03
  8
寸法
  6
CONTINUOUS
 10
51.69375
 20
23.95
  1
57.5
 40
3.0
 72
     5
 11
58.25625
 21
23.95
  0
ENDBLK
  0
BLOCK
  2
*GRP_0023
 70
    65
 10
0.0
 20
0.0
  0
POLYLINE
  8
寸法
  6
BYBLOCK
 62
     0
 66
     1
  0
VERTEX
  8
寸法
 10
-22.45582
 20
-5.636653
  0
VERTEX
  8
寸法
 10
-19.857745
 20
-7.136653
  0
VERTEX
  8
寸法
 10
-21.357745
 20
-4.538577
  0
SEQEND
  0
POLYLINE
  8
寸法
  6
BYBLOCK
 62
     0
 66
     1
  0
VERTEX
  8
寸法
 10
-19.857745
 20
-7.136653
  0
VERTEX
  8
寸法
 10
-33.57235
 20
6.577952
  0
VERTEX
  8
寸法
 10
-53.23943
 20
6.577952
  0
SEQEND
  0
ENDBLK
  0
BLOCK
  2
*GRP_0024
 70
    65
 10
0.0
 20
0.0
  0
POLYLINE
  8
寸法
  6
BYBLOCK
 62
     0
 66
     1
  0
VERTEX
  8
寸法
 10
0.421688
 20
-3.003945
  0
VERTEX
  8
寸法
 10
-1.078312
 20
-5.60202
  0
VERTEX
  8
寸法
 10
1.519763
 20
-4.10202
  0
SEQEND
  0
POLYLINE
  8
寸法
  6
BYBLOCK
 62
     0
 66
     1
  0
VERTEX
  8
寸法
 10
-1.078312
 20
-5.60202
  0
VERTEX
  8
寸法
 10
9.897695
 20
5.373987
  0
VERTEX
  8
寸法
 10
15.475542
 20
5.373987
  0
SEQEND
  0
ENDBLK
  0
BLOCK
  2
*GRP_0025
 70
    65
 10
0.0
 20
0.0
  0
POLYLINE
  8
寸法
  6
BYBLOCK
 62
     0
 66
     1
  0
VERTEX
  8
寸法
 10
2.88111
 20
-43.60348
  0
VERTEX
  8
寸法
 10
0.283033
 20
-42.10348
  0
VERTEX
  8
寸法
 10
1.783033
 20
-44.701558
  0
SEQEND
  0
POLYLINE
  8
寸法
  6
BYBLOCK
 62
     0
 66
     1
  0
VERTEX
  8
寸法
 10
0.283033
 20
-42.10348
  0
VERTEX
  8
寸法
 10
16.436888
 20
-58.257335
  0
VERTEX
  8
寸法
 10
27.674352
 20
-58.257335
  0
SEQEND
  0
ENDBLK
  0
BLOCK
  2
*GRP_0026
 70
    65
 10
0.0
 20
0.0
  0
CIRCLE
  8
曲げ物
  6
CONTINUOUS
 10
-70.55852
 20
-54.501908
 40
1.711815
  0
CIRCLE
  8
曲げ物
  6
CONTINUOUS
 10
-70.55852
 20
-54.501908
 40
1.724558
  0
CIRCLE
  8
曲げ物
  6
CONTINUOUS
 10
-70.55852
 20
-54.501908
 40
1.73856
  0
CIRCLE
  8
曲げ物
  6
CONTINUOUS
 10
-70.55852
 20
-54.501908
 40
1.752555
  0
CIRCLE
  8
曲げ物
  6
CONTINUOUS
 10
-70.55852
 20
-54.501908
 40
1.764555
  0
CIRCLE
  8
曲げ物
  6
CONTINUOUS
 10
-70.55852
 20
-54.501908
 40
1.78056
  0
CIRCLE
  8
曲げ物
  6
CONTINUOUS
 10
-70.55852
 20
-54.501908
 40
1.799557
  0
ENDBLK
  0
BLOCK
  2
*GRP_0027
 70
    65
 10
0.0
 20
0.0
  0
CIRCLE
  8
曲げ物
  6
CONTINUOUS
 10
-24.172895
 20
-23.155883
 40
1.711815
  0
CIRCLE
  8
曲げ物
  6
CONTINUOUS
 10
-24.172895
 20
-23.155883
 40
1.724558
  0
CIRCLE
  8
曲げ物
  6
CONTINUOUS
 10
-24.172895
 20
-23.155883
 40
1.73856
  0
CIRCLE
  8
曲げ物
  6
CONTINUOUS
 10
-24.172895
 20
-23.155883
 40
1.752555
  0
CIRCLE
  8
曲げ物
  6
CONTINUOUS
 10
-24.172895
 20
-23.155883
 40
1.764555
  0
CIRCLE
  8
曲げ物
  6
CONTINUOUS
 10
-24.172895
 20
-23.155883
 40
1.78056
  0
CIRCLE
  8
曲げ物
  6
CONTINUOUS
 10
-24.172895
 20
-23.155883
 40
1.799557
  0
ENDBLK
  0
BLOCK
  2
*GRP_0028
 70
    65
 10
0.0
 20
0.0
  0
CIRCLE
  8
曲げ物
  6
CONTINUOUS
 10
-40.770905
 20
-34.05942
 40
1.711815
  0
CIRCLE
  8
曲げ物
  6
CONTINUOUS
 10
-40.770905
 20
-34.05942
 40
1.724558
  0
CIRCLE
  8
曲げ物
  6
CONTINUOUS
 10
-40.770905
 20
-34.05942
 40
1.73856
  0
CIRCLE
  8
曲げ物
  6
CONTINUOUS
 10
-40.770905
 20
-34.05942
 40
1.752555
  0
CIRCLE
  8
曲げ物
  6
CONTINUOUS
 10
-40.770905
 20
-34.05942
 40
1.764555
  0
CIRCLE
  8
曲げ物
  6
CONTINUOUS
 10
-40.770905
 20
-34.05942
 40
1.78056
  0
CIRCLE
  8
曲げ物
  6
CONTINUOUS
 10
-40.770905
 20
-34.05942
 40
1.799557
  0
ENDBLK
  0
BLOCK
  2
*GRP_0029
 70
    65
 10
0.0
 20
0.0
  0
CIRCLE
  8
曲げ物
  6
CONTINUOUS
 10
-65.009847
 20
-42.528442
 40
1.711815
  0
CIRCLE
  8
曲げ物
  6
CONTINUOUS
 10
-65.009847
 20
-42.528442
 40
1.724558
  0
CIRCLE
  8
曲げ物
  6
CONTINUOUS
 10
-65.009847
 20
-42.528442
 40
1.73856
  0
CIRCLE
  8
曲げ物
  6
CONTINUOUS
 10
-65.009847
 20
-42.528442
 40
1.752555
  0
CIRCLE
  8
曲げ物
  6
CONTINUOUS
 10
-65.009847
 20
-42.528442
 40
1.764555
  0
CIRCLE
  8
曲げ物
  6
CONTINUOUS
 10
-65.009847
 20
-42.528442
 40
1.78056
  0
CIRCLE
  8
曲げ物
  6
CONTINUOUS
 10
-65.009847
 20
-42.528442
 40
1.799557
  0
ENDBLK
  0
BLOCK
  2
*GRP_0030
 70
    65
 10
0.0
 20
0.0
  0
LINE
  8
St
  6
CONTINUOUS
 62
   127
 10
32.859737
 20
-20.53749
 11
32.859737
 21
-50.53749
  0
LINE
  8
St
  6
CONTINUOUS
 62
   127
 10
-17.140258
 20
-20.53749
 11
-17.140258
 21
-50.53749
  0
LINE
  8
St
  6
CONTINUOUS
 62
   127
 10
-3.536727
 20
-20.53749
 11
-6.536727
 21
-23.53749
  0
LINE
  8
St
  6
CONTINUOUS
 62
   127
 10
-2.122527
 20
-20.53749
 11
-5.122527
 21
-23.53749
  0
LINE
  8
St
  6
CONTINUOUS
 62
   127
 10
-17.140258
 20
-50.53749
 11
32.859737
 21
-50.53749
  0
LINE
  8
St
  6
CONTINUOUS
 62
   127
 10
-17.140258
 20
-20.53749
 11
32.859737
 21
-20.53749
  0
LINE
  8
St
  6
CONTINUOUS
 62
   127
 10
-17.140258
 20
-23.53749
 11
32.859737
 21
-23.53749
  0
LINE
  8
St
  6
CONTINUOUS
 62
   127
 10
25.057788
 20
-20.53749
 11
22.057788
 21
-23.53749
  0
LINE
  8
St
  6
CONTINUOUS
 62
   127
 10
26.472003
 20
-20.53749
 11
23.472003
 21
-23.53749
  0
ENDBLK
  0
ENDSEC
  0
SECTION
  2
ENTITIES
  0
POLYLINE
  8
通り芯
  6
CONTINUOUS
 66
     1
 70
     1
  0
VERTEX
  8
通り芯
 10
-210.0
 20
-148.5
  0
VERTEX
  8
通り芯
 10
210.0
 20
-148.5
  0
VERTEX
  8
通り芯
 10
210.0
 20
148.5
  0
VERTEX
  8
通り芯
 10
-210.0
 20
148.5
  0
SEQEND
  0
INSERT
  2
*GRP_0002
  8
通り芯
  6
CONTINUOUS
 10
0.0
 20
0.0
  0
INSERT
  2
*GRP_0001
  8
型材断面
  6
CONTINUOUS
 10
0.0
 20
0.0
  0
INSERT
  2
*GRP_0003
  8
型材断面
  6
CONTINUOUS
 10
0.0
 20
0.0
  0
INSERT
  2
*GRP_0004
  8
型材断面
  6
CONTINUOUS
 10
0.0
 20
0.0
  0
LINE
  8
型材断面
  6
CONTINUOUS
 10
-49.240258
 20
-43.037482
 11
-49.240258
 21
-41.537482
  0
LINE
  8
型材断面
  6
CONTINUOUS
 62
    47
 10
-26.001223
 20
-9.037485
 11
-33.07229
 21
-16.10856
  0
LINE
  8
型材断面
  6
CONTINUOUS
 62
    47
 10
-38.375593
 20
-12.926565
 11
-57.740262
 21
-32.29122
  0
ARC
  8
型材断面
  6
CONTINUOUS
 62
    47
 10
-29.183204
 20
-3.73419
 40
1.5
 50
135.0
 51
225.0
  0
ARC
  8
型材断面
  6
CONTINUOUS
 62
    47
 10
-38.375598
 20
-12.926584
 40
1.5
 50
45.000054
 51
134.999993
  0
ARC
  8
型材断面
  6
CONTINUOUS
 62
    47
 10
-26.00122
 20
-9.037495
 40
1.5
 50
-45.000012
 51
45.0
  0
ARC
  8
型材断面
  6
CONTINUOUS
 62
    47
 10
-33.072292
 20
-16.108564
 40
1.5
 50
224.999946
 51
314.999986
  0
ARC
  8
型材断面
  6
CONTINUOUS
 62
    47
 10
-57.740259
 20
-32.29124
 40
1.5
 50
134.999993
 51
180.0
  0
LINE
  8
型材断面
  6
CONTINUOUS
 62
    47
 10
-26.001223
 20
-9.037485
 11
-31.304525
 21
-3.734183
  0
LINE
  8
型材断面
  6
CONTINUOUS
 62
    47
 10
-33.07229
 20
-16.10856
 11
-38.3756
 21
-10.805257
  0
LINE
  8
型材断面
  6
CONTINUOUS
 62
    47
 10
-38.3756
 20
-10.805257
 11
-59.240262
 21
-31.669913
  0
LINE
  8
型材断面
  6
CONTINUOUS
 62
    47
 10
-29.183202
 20
-3.734183
 11
-23.8799
 21
-9.037485
  0
LINE
  8
型材断面
  6
CONTINUOUS
 62
    47
 10
-38.375593
 20
-12.926565
 11
-33.07229
 21
-18.229875
  0
LINE
  8
型材断面
  6
CONTINUOUS
 62
    47
 10
-57.740262
 20
-32.29122
 11
-57.740262
 21
-41.537482
  0
ARC
  8
型材断面
  6
CONTINUOUS
 62
    47
 10
-57.740259
 20
-41.537489
 40
1.5
 50
180.0
 51
270.0
  0
LINE
  8
型材断面
  6
CONTINUOUS
 62
    47
 10
-59.240262
 20
-31.669913
 11
-59.240262
 21
-43.037482
  0
LINE
  8
型材断面
  6
CONTINUOUS
 62
    47
 10
-59.240262
 20
-37.037482
 11
-57.740262
 21
-37.037482
  0
LINE
  8
型材断面
  6
CONTINUOUS
 62
    47
 10
-58.115262
 20
-41.912482
 11
-58.115262
 21
-37.037482
  0
LINE
  8
型材断面
  6
CONTINUOUS
 62
    47
 10
-58.490262
 20
-42.287482
 11
-58.490262
 21
-37.037482
  0
LINE
  8
型材断面
  6
CONTINUOUS
 62
    47
 10
-58.865262
 20
-42.662482
 11
-58.865262
 21
-37.037482
  0
LINE
  8
型材断面
  6
CONTINUOUS
 62
    47
 10
-11.505537
 20
4.7511
 11
-17.16239
 21
10.407952
  0
LINE
  8
型材断面
  6
CONTINUOUS
 62
    47
 10
-12.566195
 20
3.690443
 11
-11.505537
 21
4.7511
  0
LINE
  8
型材断面
  6
CONTINUOUS
 62
    47
 10
-12.566195
 20
3.690443
 11
-17.16239
 21
8.286637
  0
ARC
  8
型材断面
  6
CONTINUOUS
 62
    47
 10
-17.162389
 20
8.286625
 40
1.5
 50
45.0
 51
135.0
  0
LINE
  8
型材断面
  6
CONTINUOUS
 62
    47
 10
-11.505537
 20
4.7511
 11
-17.16239
 21
10.407952
  0
LINE
  8
型材断面
  6
CONTINUOUS
 62
    47
 10
-31.304525
 20
-3.734183
 11
-17.16239
 21
10.407952
  0
LINE
  8
型材断面
  6
CONTINUOUS
 62
    47
 10
-29.183202
 20
-3.734183
 11
-17.16239
 21
8.28663
  0
LINE
  8
型材断面
  6
CONTINUOUS
 62
    47
 10
-23.8799
 20
-9.037485
 11
-33.07229
 21
-18.229882
  0
LINE
  8
型材断面
  6
CONTINUOUS
 62
    47
 10
-59.240262
 20
-43.037482
 11
-51.24026
 21
-43.037482
  0
LINE
  8
型材断面
  6
CONTINUOUS
 62
    47
 10
-57.740262
 20
-41.537482
 11
-49.240258
 21
-41.537482
  0
LINE
  8
型材断面
  6
CONTINUOUS
 62
    47
 10
-58.115262
 20
-41.912482
 11
-49.240258
 21
-41.912482
  0
LINE
  8
型材断面
  6
CONTINUOUS
 62
    47
 10
-58.490262
 20
-42.287482
 11
-49.240258
 21
-42.287482
  0
LINE
  8
型材断面
  6
CONTINUOUS
 62
    47
 10
-58.865262
 20
-42.662482
 11
-49.240258
 21
-42.662482
  0
INSERT
  2
*GRP_0005
  8
型材断面
  6
CONTINUOUS
 10
0.0
 20
0.0
  0
LINE
  8
型材断面
  6
CONTINUOUS
 10
-10.091323
 20
17.47902
 11
-0.191825
 21
7.579522
  0
INSERT
  2
*GRP_0006
  8
型材断面
  6
CONTINUOUS
 10
0.0
 20
0.0
  0
LINE
  8
型材断面
  6
CONTINUOUS
 10
-10.091323
 20
17.47902
 11
7.9171
 21
35.487443
  0
LINE
  8
型材断面
  6
CONTINUOUS
 10
-4.435377
 20
11.823075
 11
19.22899
 21
35.487443
  0
LINE
  8
型材断面
  6
CONTINUOUS
 10
-4.000152
 20
-10.085933
 11
41.573222
 21
35.487443
  0
LINE
  8
型材断面
  6
CONTINUOUS
 10
2.36419
 20
-15.036038
 11
52.88767
 21
35.487443
  0
LINE
  8
型材断面
  6
CONTINUOUS
 10
10.142373
 20
-15.036038
 11
60.665853
 21
35.487443
  0
LINE
  8
型材断面
  6
CONTINUOUS
 10
21.456085
 20
-15.036038
 11
71.979565
 21
35.487443
  0
LINE
  8
型材断面
  6
CONTINUOUS
 10
33.483692
 20
-15.036038
 11
84.007172
 21
35.487443
  0
LINE
  8
型材断面
  6
CONTINUOUS
 10
28.527145
 20
-15.036038
 11
79.050625
 21
35.487443
  0
LINE
  8
型材断面
  6
CONTINUOUS
 10
42.66928
 20
-15.036038
 11
93.19276
 21
35.487443
  0
LINE
  8
型材断面
  6
CONTINUOUS
 10
49.740347
 20
-15.036038
 11
100.263827
 21
35.487443
  0
LINE
  8
型材断面
  6
DASHDOT
 10
26.25974
 20
-20.537482
 11
26.25974
 21
36.85366
  0
POLYLINE
  8
型材断面
  6
CONTINUOUS
 66
     1
  0
VERTEX
  8
型材断面
 10
142.977348
 20
36.85366
  0
VERTEX
  8
型材断面
 10
136.74521
 20
38.956907
  0
VERTEX
  8
型材断面
 10
136.65707
 20
36.85366
  0
SEQEND
  0
POLYLINE
  8
型材断面
  6
CONTINUOUS
 66
     1
  0
VERTEX
  8
型材断面
 10
140.388985
 20
36.85366
  0
VERTEX
  8
型材断面
 10
134.156848
 20
38.956907
  0
VERTEX
  8
型材断面
 10
134.068707
 20
36.85366
  0
SEQEND
  0
LINE
  8
型材断面
  6
CONTINUOUS
 10
26.25974
 20
36.85366
 11
142.977348
 21
36.85366
  0
LINE
  8
ガラス
  6
CONTINUOUS
 10
-12.919745
 20
-5.146965
 11
27.714662
 21
35.487443
  0
LINE
  8
ガラス
  6
CONTINUOUS
 10
-12.566187
 20
-5.500515
 11
28.42177
 21
35.487443
  0
LINE
  8
ガラス
  6
CONTINUOUS
 10
-8.11142
 20
-9.95529
 11
37.331313
 21
35.487443
  0
LINE
  8
ガラス
  6
CONTINUOUS
 10
-8.46497
 20
-9.60174
 11
36.624202
 21
35.487443
  0
INSERT
  2
*GRP_0007
  8
ゴム等
  6
CONTINUOUS
 10
0.0
 20
0.0
  0
INSERT
  2
*GRP_0008
  8
ゴム等
  6
CONTINUOUS
 10
0.0
 20
0.0
  0
INSERT
  2
*GRP_0009
  8
ボルト／ビス
  6
CONTINUOUS
 10
0.0
 20
0.0
  0
INSERT
  2
*GRP_0010
  8
ボルト／ビス
  6
CONTINUOUS
 10
0.0
 20
0.0
  0
INSERT
  2
*GRP_0011
  8
ボルト／ビス
  6
CONTINUOUS
 10
0.0
 20
0.0
  0
INSERT
  2
*GRP_0012
  8
ボルト／ビス
  6
CONTINUOUS
 10
0.0
 20
0.0
  0
TEXT
  7
TextStyle03
  8
文字
  6
CONTINUOUS
 10
65.025
 20
37.8
  1
呼称寸法
 40
4.0
 72
     5
 11
82.525
 21
37.8
  0
TEXT
  7
TextStyle03
  8
文字
  6
CONTINUOUS
 10
-72.825
 20
4.425
  1
TKR-1104
 40
4.0
 72
     5
 11
-55.075
 21
4.425
  0
TEXT
  7
TextStyle03
  8
文字
  6
CONTINUOUS
 10
16.625
 20
2.975
  1
TKR-1206
 40
4.0
 72
     5
 11
34.375
 21
2.975
  0
TEXT
  7
TextStyle03
  8
文字
  6
CONTINUOUS
 10
28.3
 20
-60.275
  1
L-30×30×3　St
 40
4.0
 72
     5
 11
61.8
 21
-60.275
  0
TEXT
  7
TextStyle03
  8
文字
  6
CONTINUOUS
 10
75.925
 20
99.6
  1
ＮＳコード：ＮＳ４ＣＫＳ
 40
5.0
 72
     5
 11
142.8
 21
99.6
  0
TEXT
  7
TextStyle03
  8
文字
  6
CONTINUOUS
 10
76.025
 20
121.7
  1
シリーズ：ＳＴＦ４Ｋ
 40
5.0
 72
     5
 11
131.65
 21
121.7
  0
TEXT
  7
TextStyle03
  8
文字
  6
CONTINUOUS
 10
76.025
 20
116.075
  1
　　　　　四角錘（固定）シングルガラス
 40
5.0
 72
     5
 11
182.275
 21
116.075
  0
TEXT
  7
TextStyle03
  8
文字
  6
CONTINUOUS
 10
76.025
 20
110.45
  1
図面名　：下枠断面詳細図
 40
5.0
 72
     5
 11
142.9
 21
110.45
  0
INSERT
  2
*DIM_0013
  8
寸法
  6
CONTINUOUS
 10
0.0
 20
0.0
  0
INSERT
  2
*DIM_0014
  8
寸法
  6
CONTINUOUS
 10
0.0
 20
0.0
  0
INSERT
  2
*DIM_0015
  8
寸法
  6
CONTINUOUS
 10
0.0
 20
0.0
  0
INSERT
  2
*DIM_0016
  8
寸法
  6
CONTINUOUS
 10
0.0
 20
0.0
  0
INSERT
  2
*DIM_0017
  8
寸法
  6
CONTINUOUS
 10
0.0
 20
0.0
  0
INSERT
  2
*DIM_0018
  8
寸法
  6
CONTINUOUS
 10
0.0
 20
0.0
  0
INSERT
  2
*DIM_0019
  8
寸法
  6
CONTINUOUS
 10
0.0
 20
0.0
  0
INSERT
  2
*DIM_0020
  8
寸法
  6
CONTINUOUS
 10
0.0
 20
0.0
  0
INSERT
  2
*DIM_0021
  8
寸法
  6
CONTINUOUS
 10
0.0
 20
0.0
  0
INSERT
  2
*DIM_0022
  8
寸法
  6
CONTINUOUS
 10
0.0
 20
0.0
  0
INSERT
  2
*GRP_0023
  8
寸法
  6
CONTINUOUS
 10
0.0
 20
0.0
  0
INSERT
  2
*GRP_0024
  8
寸法
  6
CONTINUOUS
 10
0.0
 20
0.0
  0
INSERT
  2
*GRP_0025
  8
寸法
  6
CONTINUOUS
 10
0.0
 20
0.0
  0
INSERT
  2
*GRP_0026
  8
曲げ物
  6
CONTINUOUS
 10
0.0
 20
0.0
  0
INSERT
  2
*GRP_0027
  8
曲げ物
  6
CONTINUOUS
 10
0.0
 20
0.0
  0
INSERT
  2
*GRP_0028
  8
曲げ物
  6
CONTINUOUS
 10
0.0
 20
0.0
  0
INSERT
  2
*GRP_0029
  8
曲げ物
  6
CONTINUOUS
 10
0.0
 20
0.0
  0
LINE
  8
St
  6
CONTINUOUS
 62
    47
 10
-26.70833
 20
-11.865915
 11
-27.768988
 21
-10.805257
  0
LINE
  8
St
  6
CONTINUOUS
 62
    47
 10
-30.24386
 20
-15.401452
 11
-31.304525
 21
-14.340787
  0
LINE
  8
St
  6
CONTINUOUS
 62
    47
 10
-31.039355
 20
-14.605958
 11
-27.503825
 21
-11.07042
  0
LINE
  8
St
  6
CONTINUOUS
 62
    47
 10
-30.774193
 20
-14.87112
 11
-27.238655
 21
-11.335582
  0
LINE
  8
St
  6
CONTINUOUS
 62
    47
 10
-30.50903
 20
-15.136283
 11
-26.973492
 21
-11.600752
  0
LINE
  8
St
  6
DASHDOT
 62
    47
 10
-32.034523
 20
-10.07526
 11
-26.45813
 21
-15.651645
  0
LINE
  8
St
  6
CONTINUOUS
 10
-24.640258
 20
-15.037478
 11
-24.640258
 21
-19.037482
  0
LINE
  8
St
  6
CONTINUOUS
 10
-8.140258
 20
-15.037478
 11
-8.140258
 21
-19.037482
  0
LINE
  8
St
  6
CONTINUOUS
 10
-24.640258
 20
-15.037478
 11
82.25974
 21
-15.037478
  0
INSERT
  2
*GRP_0030
  8
St
  6
CONTINUOUS
 62
   127
 10
0.0
 20
0.0
  0
LINE
  8
その他部品等
  6
CONTINUOUS
 10
-38.3756
 20
-10.805257
 11
-31.304525
 21
-3.734183
  0
LINE
  8
その他部品等
  6
CONTINUOUS
 10
-35.209813
 20
-13.971045
 11
-28.138738
 21
-6.89997
  0
LINE
  8
その他部品等
  6
CONTINUOUS
 10
-33.07229
 20
-16.10856
 11
-28.138738
 21
-6.89997
  0
INSERT
  2
*HAT_0005
  8
その他部品等
 10
0.0
 20
0.0
  0
LINE
  8
その他部品等
  6
CONTINUOUS
 10
-17.16239
 20
10.407952
 11
2.636613
 21
10.407952
  0
INSERT
  2
*HAT_0006
  8
その他部品等
 10
0.0
 20
0.0
  0
INSERT
  2
*HAT_0007
  8
その他部品等
 10
0.0
 20
0.0
  0
ENDSEC
  0
EOF
