  0
SECTION
  2
HEADER
  9
$EXTMIN
 10
-210.0
 20
-148.5
  9
$EXTMAX
 10
210.0
 20
148.5
  9
$PDMODE
 70
    32
  9
$PDSIZE
 40
1.5
  9
$LTSCALE
 40
10.0
  0
ENDSEC
  0
SECTION
  2
TABLES
  0
TABLE
  2
LTYPE
 70
    15
  0
LTYPE
  2
CONTINUOUS
 70
    64
  3
実線
 72
    65
 73
     0
 40
0.0
  0
LTYPE
  2
DASHED
 70
    64
  3
破線A
 72
    65
 73
     2
 40
0.6
 49
0.4
 49
-0.2
  0
LTYPE
  2
DASHEDX2
 70
    64
  3
破線B
 72
    65
 73
     2
 40
1.3
 49
0.9
 49
-0.4
  0
LTYPE
  2
DASHDOT
 70
    64
  3
１点鎖線A
 72
    65
 73
     4
 40
0.5375
 49
0.375
 49
-0.05
 49
0.0625
 49
-0.05
  0
LTYPE
  2
DASHDOTX2
 70
    64
  3
１点鎖線B
 72
    65
 73
     4
 40
1.075
 49
0.75
 49
-0.1
 49
0.125
 49
-0.1
  0
LTYPE
  2
DIVIDE2
 70
    64
  3
２点鎖線A
 72
    65
 73
     6
 40
0.5125
 49
0.3
 49
-0.0375
 49
0.05
 49
-0.0375
 49
0.05
 49
-0.0375
  0
LTYPE
  2
DIVIDE
 70
    64
  3
２点鎖線B
 72
    65
 73
     6
 40
1.05
 49
0.55
 49
-0.1
 49
0.1
 49
-0.1
 49
0.1
 49
-0.1
  0
LTYPE
  2
DOT
 70
    64
  3
点線A
 72
    65
 73
     2
 40
0.1125
 49
0.0625
 49
-0.05
  0
LTYPE
  2
DOTX2
 70
    64
  3
点線B
 72
    65
 73
     2
 40
0.275
 49
0.15
 49
-0.125
  0
LTYPE
  2
CONTINUOUS
 70
    64
  3
実線
 72
    65
 73
     0
 40
0.0
  0
LTYPE
  2
CONTINUOUS
 70
    64
  3
実線
 72
    65
 73
     0
 40
0.0
  0
LTYPE
  2
CONTINUOUS
 70
    64
  3
実線
 72
    65
 73
     0
 40
0.0
  0
LTYPE
  2
CONTINUOUS
 70
    64
  3
実線
 72
    65
 73
     0
 40
0.0
  0
LTYPE
  2
CONTINUOUS
 70
    64
  3
実線
 72
    65
 73
     0
 40
0.0
  0
LTYPE
  2
CONTINUOUS
 70
    64
  3
実線
 72
    65
 73
     0
 40
0.0
  0
ENDTAB
  0
TABLE
  2
LAYER
 70
    34
  0
LAYER
  2
通り芯
 70
     0
 62
    15
  6
CONTINUOUS
  0
LAYER
  2
補助線
 70
     0
 62
    16
  6
DOT
  0
LAYER
  2
躯体
 70
     0
 62
    31
  6
CONTINUOUS
  0
LAYER
  2
型材
 70
     0
 62
    32
  6
CONTINUOUS
  0
LAYER
  2
型材断面
 70
     0
 62
    47
  6
CONTINUOUS
  0
LAYER
  2
ガラス
 70
     0
 62
    48
  6
CONTINUOUS
  0
LAYER
  2
ゴム等
 70
     0
 62
    63
  6
CONTINUOUS
  0
LAYER
  2
ボルト／ビス
 70
     0
 62
    64
  6
CONTINUOUS
  0
LAYER
  2
文字
 70
     0
 62
    79
  6
CONTINUOUS
  0
LAYER
  2
寸法
 70
     0
 62
    80
  6
CONTINUOUS
  0
LAYER
  2
ﾊｯﾁﾝｸﾞ
 70
     0
 62
    95
  6
CONTINUOUS
  0
LAYER
  2
別途部材
 70
     0
 62
    96
  6
CONTINUOUS
  0
LAYER
  2
曲げ物
 70
     0
 62
   111
  6
CONTINUOUS
  0
LAYER
  2
鉄骨等
 70
     0
 62
   112
  6
CONTINUOUS
  0
LAYER
  2
St
 70
     0
 62
   127
  6
CONTINUOUS
  0
LAYER
  2
その他部品等
 70
     0
 62
   128
  6
CONTINUOUS
  0
LAYER
  2
ｶﾞｽｹｯﾄ
 70
     0
 62
   143
  6
CONTINUOUS
  0
LAYER
  2
ｽｹｯﾁ
 70
     0
 62
    14
  6
CONTINUOUS
  0
LAYER
  2
0
 70
     0
 62
    17
  6
CONTINUOUS
  0
LAYER
  2
1
 70
     0
 62
    30
  6
CONTINUOUS
  0
LAYER
  2
4
 70
     0
 62
    33
  6
CONTINUOUS
  0
LAYER
  2
ﾚｲﾔ3
 70
     0
 62
    46
  6
CONTINUOUS
  0
LAYER
  2
外形線
 70
     0
 62
    49
  6
CONTINUOUS
  0
LAYER
  2
部品
 70
     0
 62
    14
  6
CONTINUOUS
  0
LAYER
  2
サッシ芯
 70
     0
 62
    17
  6
DASHDOTX2
  0
LAYER
  2
寸法線
 70
     0
 62
    62
  6
CONTINUOUS
  0
LAYER
  2
姿図外形線
 70
     0
 62
    65
  6
CONTINUOUS
  0
LAYER
  2
姿補助線
 70
     0
 62
    30
  6
CONTINUOUS
  0
LAYER
  2
透視線
 70
     0
 62
    78
  6
DOT
  0
LAYER
  2
用紙
 70
     0
 62
    81
  6
CONTINUOUS
  0
LAYER
  2
実線図枠
 70
     0
 62
    94
  6
CONTINUOUS
  0
LAYER
  2
補助図枠
 70
     0
 62
    97
  6
CONTINUOUS
  0
LAYER
  2
建具記号
 70
     0
 62
   110
  6
CONTINUOUS
  0
LAYER
  2
補助文字
 70
     0
 62
   113
  6
CONTINUOUS
  0
ENDTAB
  0
TABLE
  2
STYLE
 70
    10
  0
STYLE
  2
STANDARD
 70
     0
 40
1.0
 41
1.0
 42
1.0
 50
0.0
 71
     0
  3
TXT
  4
BIGFONT
  0
STYLE
  2
TATE
 70
     4
 40
1.0
 41
1.0
 42
1.0
 50
0.0
 71
     0
  3
TXT
  4
BIGFONT
  0
STYLE
  2
TextStyle03
 70
     0
 40
1.0
 41
1.0
 42
1.0
 50
0.0
 71
     0
  3
MONOTXT
  4
BIGFONT
  0
STYLE
  2
TextStyle04
 70
     0
 40
1.0
 41
1.0
 42
1.0
 50
0.0
 71
     0
  3
MONOTXT
  4
BIGFONT
  0
STYLE
  2
TextStyle05
 70
     0
 40
1.0
 41
1.0
 42
1.0
 50
0.0
 71
     0
  3
MONOTXT
  4
BIGFONT
  0
STYLE
  2
TextStyle06
 70
     0
 40
1.0
 41
1.0
 42
1.0
 50
0.0
 71
     0
  3
MONOTXT
  4
BIGFONT
  0
STYLE
  2
TextStyle07
 70
     0
 40
1.0
 41
1.0
 42
1.0
 50
0.0
 71
     0
  3
MONOTXT
  4
BIGFONT
  0
STYLE
  2
TextStyle08
 70
     0
 40
1.0
 41
1.0
 42
1.0
 50
0.0
 71
     0
  3
MONOTXT
  4
BIGFONT
  0
STYLE
  2
TextStyle09
 70
     0
 40
1.0
 41
1.0
 42
1.0
 50
0.0
 71
     0
  3
MONOTXT
  4
BIGFONT
  0
STYLE
  2
TextStyle10
 70
     0
 40
1.0
 41
1.0
 42
1.0
 50
0.0
 71
     0
  3
MONOTXT
  4
BIGFONT
  0
ENDTAB
  0
ENDSEC
  0
SECTION
  2
BLOCKS
  0
BLOCK
  2
*GRP_0001
 70
    65
 10
0.0
 20
0.0
  0
LINE
  8
型材断面
  6
CONTINUOUS
 10
195.0
 20
133.5
 11
195.0
 21
-133.5
  0
LINE
  8
型材断面
  6
CONTINUOUS
 10
195.0
 20
-133.5
 11
-185.0
 21
-133.5
  0
LINE
  8
型材断面
  6
CONTINUOUS
 10
-185.0
 20
-133.5
 11
-185.0
 21
133.5
  0
LINE
  8
型材断面
  6
CONTINUOUS
 10
195.0
 20
133.5
 11
-185.0
 21
133.5
  0
LINE
  8
型材断面
  6
CONTINUOUS
 10
145.0
 20
-133.5
 11
145.0
 21
-118.5
  0
LINE
  8
型材断面
  6
CONTINUOUS
 10
195.0
 20
-118.5
 11
145.0
 21
-118.5
  0
ENDBLK
  0
BLOCK
  2
*DIM_0002
 70
    65
 10
0.0
 20
0.0
  0
LINE
  8
寸法
  6
BYBLOCK
 62
     0
 10
-74.900342
 20
-34.672765
 11
-74.900342
 21
-34.174258
  0
LINE
  8
寸法
  6
BYBLOCK
 62
     0
 10
-29.900342
 20
-34.672765
 11
-29.900342
 21
-34.174258
  0
LINE
  8
寸法
  6
BYBLOCK
 62
     0
 10
-74.900342
 20
-34.174258
 11
-29.900342
 21
-34.174258
  0
POINT
  8
寸法
 62
     0
 10
-74.900342
 20
-34.174258
  0
POINT
  8
寸法
 62
     0
 10
-29.900342
 20
-34.174258
  0
TEXT
  7
TextStyle03
  8
寸法
  6
CONTINUOUS
 62
     0
 10
-63.3
 20
-33.8
  1
呼称寸法　900
 40
3.0
 72
     5
 11
-41.55
 21
-33.8
  0
ENDBLK
  0
BLOCK
  2
*DIM_0003
 70
    65
 10
0.0
 20
0.0
  0
LINE
  8
寸法
  6
BYBLOCK
 62
     0
 10
-25.625342
 20
-70.925495
 11
-25.625342
 21
-34.174258
  0
LINE
  8
寸法
  6
BYBLOCK
 62
     0
 10
-29.900342
 20
-34.174258
 11
-25.625342
 21
-34.174258
  0
POINT
  8
寸法
 62
     0
 10
-25.625342
 20
-34.174258
  0
TEXT
  7
TextStyle03
  8
寸法
  6
CONTINUOUS
 62
     0
 10
-24.30625
 20
-33.8
  1
85.5
 40
3.0
 72
     5
 11
-17.74375
 21
-33.8
  0
ENDBLK
  0
BLOCK
  2
*DIM_0004
 70
    65
 10
0.0
 20
0.0
  0
LINE
  8
寸法
  6
BYBLOCK
 62
     0
 10
-79.175342
 20
-70.925495
 11
-79.175342
 21
-34.174258
  0
LINE
  8
寸法
  6
BYBLOCK
 62
     0
 10
-74.900342
 20
-34.174258
 11
-79.175342
 21
-34.174258
  0
POINT
  8
寸法
 62
     0
 10
-74.900342
 20
-34.174258
  0
POINT
  8
寸法
 62
     0
 10
-79.175342
 20
-34.174258
  0
TEXT
  7
TextStyle03
  8
寸法
  6
CONTINUOUS
 62
     0
 10
-87.08125
 20
-33.8
  1
85.5
 40
3.0
 72
     5
 11
-80.51875
 21
-33.8
  0
ENDBLK
  0
BLOCK
  2
*DIM_0005
 70
    65
 10
0.0
 20
0.0
  0
LINE
  8
寸法
  6
BYBLOCK
 62
     0
 10
-51.400342
 20
-45.04453
 11
-8.229482
 21
-45.04453
  0
LINE
  8
寸法
  6
BYBLOCK
 62
     0
 10
-8.229482
 20
-71.925495
 11
-8.229482
 21
-45.04453
  0
POINT
  8
寸法
 62
     0
 10
-8.229482
 20
-71.925495
  0
POINT
  8
寸法
 62
     0
 10
-8.229482
 20
-45.04453
  0
TEXT
  7
TextStyle03
  8
寸法
  6
CONTINUOUS
 62
     0
 10
-8.625
 20
-62.625
  1
537.6
 40
3.0
 50
90.0
 72
     5
 11
-8.625
 21
-54.375
  0
ENDBLK
  0
BLOCK
  2
*DIM_0006
 70
    65
 10
0.0
 20
0.0
  0
LINE
  8
寸法
  6
BYBLOCK
 62
     0
 10
-56.65034
 20
-48.29453
 11
-56.65034
 21
-40.63321
  0
LINE
  8
寸法
  6
BYBLOCK
 62
     0
 10
-48.150342
 20
-48.29453
 11
-48.150342
 21
-40.63321
  0
LINE
  8
寸法
  6
BYBLOCK
 62
     0
 10
-56.65034
 20
-40.63321
 11
-48.150342
 21
-40.63321
  0
POINT
  8
寸法
 62
     0
 10
-56.65034
 20
-40.63321
  0
POINT
  8
寸法
 62
     0
 10
-48.150342
 20
-40.63321
  0
TEXT
  7
TextStyle03
  8
寸法
  6
CONTINUOUS
 62
     0
 10
-54.8625
 20
-40.275
  1
170
 40
3.0
 72
     5
 11
-49.9875
 21
-40.275
  0
ENDBLK
  0
BLOCK
  2
*DIM_0007
 70
    65
 10
0.0
 20
0.0
  0
LINE
  8
寸法
  6
BYBLOCK
 62
     0
 10
-41.659207
 20
-45.04453
 11
-41.049258
 21
-45.04453
  0
LINE
  8
寸法
  6
BYBLOCK
 62
     0
 10
-47.150342
 20
-49.29453
 11
-41.049258
 21
-49.29453
  0
LINE
  8
寸法
  6
BYBLOCK
 62
     0
 10
-41.049258
 20
-45.04453
 11
-41.049258
 21
-49.29453
  0
POINT
  8
寸法
 62
     0
 10
-41.049258
 20
-45.04453
  0
POINT
  8
寸法
 62
     0
 10
-41.049258
 20
-49.29453
  0
TEXT
  7
TextStyle03
  8
寸法
  6
CONTINUOUS
 62
     0
 10
-41.425
 20
-48.76875
  1
85
 40
3.0
 50
90.0
 72
     5
 11
-41.425
 21
-45.58125
  0
ENDBLK
  0
BLOCK
  2
*DIM_0008
 70
    65
 10
0.0
 20
0.0
  0
LINE
  8
寸法
  6
BYBLOCK
 62
     0
 10
-24.625342
 20
-71.925495
 11
-8.229482
 21
-71.925495
  0
LINE
  8
寸法
  6
BYBLOCK
 62
     0
 10
-24.625342
 20
-73.97169
 11
-8.229482
 21
-73.97169
  0
LINE
  8
寸法
  6
BYBLOCK
 62
     0
 10
-8.229482
 20
-71.925495
 11
-8.229482
 21
-73.97169
  0
POINT
  8
寸法
 62
     0
 10
-8.229482
 20
-71.925495
  0
POINT
  8
寸法
 62
     0
 10
-8.229482
 20
-73.97169
  0
TEXT
  7
TextStyle03
  8
寸法
  6
CONTINUOUS
 62
     0
 10
-5.25
 20
-76.23125
  1
40.9
 40
3.0
 50
90.0
 72
     5
 11
-5.25
 21
-69.66875
  0
ENDBLK
  0
BLOCK
  2
*DIM_0009
 70
    65
 10
0.0
 20
0.0
  0
LINE
  8
寸法
  6
BYBLOCK
 62
     0
 10
-67.400342
 20
43.506688
 11
-67.400342
 21
61.445702
  0
LINE
  8
寸法
  6
BYBLOCK
 62
     0
 10
-37.400342
 20
43.506688
 11
-37.400342
 21
61.445702
  0
LINE
  8
寸法
  6
BYBLOCK
 62
     0
 10
-67.400342
 20
61.445702
 11
-37.400342
 21
61.445702
  0
POINT
  8
寸法
 62
     0
 10
-67.400342
 20
61.445702
  0
POINT
  8
寸法
 62
     0
 10
-37.400342
 20
61.445702
  0
TEXT
  7
TextStyle03
  8
寸法
  6
CONTINUOUS
 62
     0
 10
-54.8875
 20
61.825
  1
600
 40
3.0
 72
     5
 11
-50.0125
 21
61.825
  0
ENDBLK
  0
BLOCK
  2
*DIM_0010
 70
    65
 10
0.0
 20
0.0
  0
LINE
  8
寸法
  6
BYBLOCK
 62
     0
 10
-75.900342
 20
42.506688
 11
-98.808585
 21
42.506688
  0
LINE
  8
寸法
  6
BYBLOCK
 62
     0
 10
-75.900342
 20
20.006688
 11
-98.808585
 21
20.006688
  0
LINE
  8
寸法
  6
BYBLOCK
 62
     0
 10
-98.808585
 20
42.506688
 11
-98.808585
 21
20.006688
  0
POINT
  8
寸法
 62
     0
 10
-98.808585
 20
42.506688
  0
POINT
  8
寸法
 62
     0
 10
-98.808585
 20
20.006688
  0
TEXT
  7
TextStyle03
  8
寸法
  6
CONTINUOUS
 62
     0
 10
-99.225
 20
28.8125
  1
450
 40
3.0
 50
90.0
 72
     5
 11
-99.225
 21
33.6875
  0
ENDBLK
  0
BLOCK
  2
*DIM_0011
 70
    65
 10
0.0
 20
0.0
  0
LINE
  8
寸法
  6
BYBLOCK
 62
     0
 10
-75.900342
 20
-2.493312
 11
-98.808585
 21
-2.493312
  0
LINE
  8
寸法
  6
BYBLOCK
 62
     0
 10
-98.808585
 20
20.006688
 11
-98.808585
 21
-2.493312
  0
POINT
  8
寸法
 62
     0
 10
-98.808585
 20
-2.493312
  0
TEXT
  7
TextStyle03
  8
寸法
  6
CONTINUOUS
 62
     0
 10
-99.225
 20
6.3125
  1
450
 40
3.0
 50
90.0
 72
     5
 11
-99.225
 21
11.1875
  0
ENDBLK
  0
BLOCK
  2
*DIM_0012
 70
    65
 10
0.0
 20
0.0
  0
LINE
  8
寸法
  6
BYBLOCK
 62
     0
 10
102.758163
 20
-80.399633
 11
102.758163
 21
-96.13832
  0
LINE
  8
寸法
  6
BYBLOCK
 62
     0
 10
149.378162
 20
-80.399633
 11
149.378162
 21
-96.13832
  0
LINE
  8
寸法
  6
BYBLOCK
 62
     0
 10
102.758163
 20
-96.13832
 11
149.378162
 21
-96.13832
  0
POINT
  8
寸法
 62
     0
 10
102.758163
 20
-96.13832
  0
POINT
  8
寸法
 62
     0
 10
149.378162
 20
-96.13832
  0
TEXT
  7
TextStyle03
  8
寸法
  6
CONTINUOUS
 62
     0
 10
121.925
 20
-95.775
  1
932.4
 40
3.0
 72
     5
 11
130.175
 21
-95.775
  0
ENDBLK
  0
BLOCK
  2
*DIM_0013
 70
    65
 10
0.0
 20
0.0
  0
LINE
  8
寸法
  6
BYBLOCK
 62
     0
 10
152.378162
 20
-77.399633
 11
164.59309
 21
-77.399633
  0
LINE
  8
寸法
  6
BYBLOCK
 62
     0
 10
129.068162
 20
-44.434453
 11
164.59309
 21
-44.434453
  0
LINE
  8
寸法
  6
BYBLOCK
 62
     0
 10
164.59309
 20
-77.399633
 11
164.59309
 21
-44.434453
  0
POINT
  8
寸法
 62
     0
 10
164.59309
 20
-77.399633
  0
POINT
  8
寸法
 62
     0
 10
164.59309
 20
-44.434453
  0
TEXT
  7
TextStyle03
  8
寸法
  6
CONTINUOUS
 62
     0
 10
164.2
 20
-65.05
  1
659.3
 40
3.0
 50
90.0
 72
     5
 11
164.2
 21
-56.8
  0
ENDBLK
  0
ENDSEC
  0
SECTION
  2
ENTITIES
  0
POLYLINE
  8
通り芯
  6
CONTINUOUS
 66
     1
 70
     1
  0
VERTEX
  8
通り芯
 10
-210.0
 20
-148.5
  0
VERTEX
  8
通り芯
 10
210.0
 20
-148.5
  0
VERTEX
  8
通り芯
 10
210.0
 20
148.5
  0
VERTEX
  8
通り芯
 10
-210.0
 20
148.5
  0
SEQEND
  0
INSERT
  2
*GRP_0001
  8
型材断面
  6
CONTINUOUS
 10
0.0
 20
0.0
  0
LINE
  8
型材断面
  6
CONTINUOUS
 10
-30.89023
 20
-4.770488
 11
-27.62317
 21
-4.770488
  0
LINE
  8
型材断面
  6
CONTINUOUS
 10
-27.62317
 20
-4.770488
 11
-27.62317
 21
-1.503427
  0
LINE
  8
型材断面
  6
DASHDOT
 10
-29.900342
 20
-2.493312
 11
-29.900342
 21
12.506688
  0
LINE
  8
型材断面
  6
DASHDOT
 10
-29.900342
 20
-2.493312
 11
-74.900342
 21
-2.493312
  0
LINE
  8
型材断面
  6
DASHDOT
 10
-25.625342
 20
-6.768312
 11
-52.400342
 21
20.006688
  0
LINE
  8
型材断面
  6
CONTINUOUS
 10
-52.400342
 20
15.756688
 11
-48.150342
 21
15.756688
  0
LINE
  8
型材断面
  6
CONTINUOUS
 10
-48.150342
 20
20.006688
 11
-48.150342
 21
15.756688
  0
LINE
  8
型材断面
  6
CONTINUOUS
 10
-48.150342
 20
15.756688
 11
-52.400342
 21
20.006688
  0
LINE
  8
型材断面
  6
CONTINUOUS
 10
-30.89023
 20
-4.770488
 11
-51.4174
 21
15.756688
  0
LINE
  8
型材断面
  6
CONTINUOUS
 10
-27.976722
 20
-4.770488
 11
-48.503892
 21
15.756688
  0
LINE
  8
型材断面
  6
CONTINUOUS
 10
-27.62317
 20
-4.416932
 11
-48.150342
 21
16.110245
  0
LINE
  8
型材断面
  6
CONTINUOUS
 10
-27.62317
 20
-1.503427
 11
-48.150342
 21
19.02375
  0
LINE
  8
型材断面
  6
DASHDOT
 10
-29.900342
 20
42.506688
 11
-74.900342
 21
42.506688
  0
LINE
  8
型材断面
  6
DASHDOT
 10
-29.900342
 20
20.006688
 11
-74.900342
 21
20.006688
  0
LINE
  8
型材断面
  6
CONTINUOUS
 10
-25.926112
 20
-6.467543
 11
-52.400342
 21
-6.467543
  0
LINE
  8
型材断面
  6
CONTINUOUS
 10
-25.625342
 20
-6.768312
 11
-52.400342
 21
-6.768312
  0
LINE
  8
型材断面
  6
CONTINUOUS
 10
-26.279667
 20
-6.11399
 11
-52.400342
 21
-6.11399
  0
LINE
  8
型材断面
  6
CONTINUOUS
 10
-27.269618
 20
-5.12404
 11
-52.400342
 21
-5.12404
  0
LINE
  8
型材断面
  6
CONTINUOUS
 10
-27.55246
 20
-4.841197
 11
-52.400342
 21
-4.841197
  0
LINE
  8
型材断面
  6
CONTINUOUS
 10
-27.269618
 20
-5.12404
 11
-27.269618
 21
20.006688
  0
LINE
  8
型材断面
  6
CONTINUOUS
 10
-27.55246
 20
-4.841197
 11
-27.55246
 21
20.006688
  0
LINE
  8
型材断面
  6
CONTINUOUS
 10
-25.625342
 20
-6.768312
 11
-25.625342
 21
20.006688
  0
LINE
  8
型材断面
  6
CONTINUOUS
 10
-26.279667
 20
-6.11399
 11
-26.279667
 21
20.006688
  0
LINE
  8
型材断面
  6
CONTINUOUS
 10
-25.926112
 20
-6.467543
 11
-25.926112
 21
20.006688
  0
LINE
  8
型材断面
  6
CONTINUOUS
 10
-73.910455
 20
44.783863
 11
-77.177515
 21
44.783863
  0
LINE
  8
型材断面
  6
CONTINUOUS
 10
-77.177515
 20
44.783863
 11
-77.177515
 21
41.516803
  0
LINE
  8
型材断面
  6
DASHDOT
 10
-74.900342
 20
42.506688
 11
-74.900342
 21
27.506688
  0
LINE
  8
型材断面
  6
DASHDOT
 10
-79.175342
 20
46.781688
 11
-52.400342
 21
20.006688
  0
LINE
  8
型材断面
  6
CONTINUOUS
 10
-52.400342
 20
24.256688
 11
-56.650342
 21
24.256688
  0
LINE
  8
型材断面
  6
CONTINUOUS
 10
-56.650342
 20
20.006688
 11
-56.650342
 21
24.256688
  0
LINE
  8
型材断面
  6
CONTINUOUS
 10
-56.650342
 20
24.256688
 11
-52.400342
 21
20.006688
  0
LINE
  8
型材断面
  6
CONTINUOUS
 10
-73.910455
 20
44.783863
 11
-53.383285
 21
24.256688
  0
LINE
  8
型材断面
  6
CONTINUOUS
 10
-76.823963
 20
44.783863
 11
-56.296792
 21
24.256688
  0
LINE
  8
型材断面
  6
CONTINUOUS
 10
-77.177515
 20
44.430307
 11
-56.650342
 21
23.90313
  0
LINE
  8
型材断面
  6
CONTINUOUS
 10
-77.177515
 20
41.516803
 11
-56.650342
 21
20.989625
  0
LINE
  8
型材断面
  6
CONTINUOUS
 10
-78.874572
 20
46.480918
 11
-52.400342
 21
46.480918
  0
LINE
  8
型材断面
  6
CONTINUOUS
 10
-79.175342
 20
46.781688
 11
-52.400342
 21
46.781688
  0
LINE
  8
型材断面
  6
CONTINUOUS
 10
-78.521018
 20
46.127365
 11
-52.400342
 21
46.127365
  0
LINE
  8
型材断面
  6
CONTINUOUS
 10
-77.531067
 20
45.137415
 11
-52.400342
 21
45.137415
  0
LINE
  8
型材断面
  6
CONTINUOUS
 10
-77.248225
 20
44.854572
 11
-52.400342
 21
44.854572
  0
LINE
  8
型材断面
  6
CONTINUOUS
 10
-77.531067
 20
45.137415
 11
-77.531067
 21
20.006688
  0
LINE
  8
型材断面
  6
CONTINUOUS
 10
-77.248225
 20
44.854572
 11
-77.248225
 21
20.006688
  0
LINE
  8
型材断面
  6
CONTINUOUS
 10
-79.175342
 20
46.781688
 11
-79.175342
 21
20.006688
  0
LINE
  8
型材断面
  6
CONTINUOUS
 10
-78.521018
 20
46.127365
 11
-78.521018
 21
20.006688
  0
LINE
  8
型材断面
  6
CONTINUOUS
 10
-78.874572
 20
46.480918
 11
-78.874572
 21
20.006688
  0
LINE
  8
型材断面
  6
CONTINUOUS
 10
-73.910455
 20
-4.770488
 11
-77.177515
 21
-4.770488
  0
LINE
  8
型材断面
  6
CONTINUOUS
 10
-77.177515
 20
-4.770488
 11
-77.177515
 21
-1.503427
  0
LINE
  8
型材断面
  6
DASHDOT
 10
-74.900342
 20
-2.493312
 11
-74.900342
 21
12.506688
  0
LINE
  8
型材断面
  6
DASHDOT
 10
-79.175342
 20
-6.768312
 11
-52.400342
 21
20.006688
  0
LINE
  8
型材断面
  6
CONTINUOUS
 10
-52.400342
 20
15.756688
 11
-56.650342
 21
15.756688
  0
LINE
  8
型材断面
  6
CONTINUOUS
 10
-56.650342
 20
20.006688
 11
-56.650342
 21
15.756688
  0
LINE
  8
型材断面
  6
CONTINUOUS
 10
-56.650342
 20
15.756688
 11
-52.400342
 21
20.006688
  0
LINE
  8
型材断面
  6
CONTINUOUS
 10
-73.910455
 20
-4.770488
 11
-53.383285
 21
15.756688
  0
LINE
  8
型材断面
  6
CONTINUOUS
 10
-76.823963
 20
-4.770488
 11
-56.296792
 21
15.756688
  0
LINE
  8
型材断面
  6
CONTINUOUS
 10
-77.177515
 20
-4.416932
 11
-56.650342
 21
16.110245
  0
LINE
  8
型材断面
  6
CONTINUOUS
 10
-77.177515
 20
-1.503427
 11
-56.650342
 21
19.02375
  0
LINE
  8
型材断面
  6
CONTINUOUS
 10
-78.874572
 20
-6.467543
 11
-52.400342
 21
-6.467543
  0
LINE
  8
型材断面
  6
CONTINUOUS
 10
-79.175342
 20
-6.768312
 11
-52.400342
 21
-6.768312
  0
LINE
  8
型材断面
  6
CONTINUOUS
 10
-78.521018
 20
-6.11399
 11
-52.400342
 21
-6.11399
  0
LINE
  8
型材断面
  6
CONTINUOUS
 10
-77.531067
 20
-5.12404
 11
-52.400342
 21
-5.12404
  0
LINE
  8
型材断面
  6
CONTINUOUS
 10
-77.248225
 20
-4.841197
 11
-52.400342
 21
-4.841197
  0
LINE
  8
型材断面
  6
CONTINUOUS
 10
-77.531067
 20
-5.12404
 11
-77.531067
 21
20.006688
  0
LINE
  8
型材断面
  6
CONTINUOUS
 10
-77.248225
 20
-4.841197
 11
-77.248225
 21
20.006688
  0
LINE
  8
型材断面
  6
CONTINUOUS
 10
-79.175342
 20
-6.768312
 11
-79.175342
 21
20.006688
  0
LINE
  8
型材断面
  6
CONTINUOUS
 10
-78.521018
 20
-6.11399
 11
-78.521018
 21
20.006688
  0
LINE
  8
型材断面
  6
CONTINUOUS
 10
-78.874572
 20
-6.467543
 11
-78.874572
 21
20.006688
  0
LINE
  8
型材断面
  6
CONTINUOUS
 10
-27.623168
 20
41.5168
 11
-27.623168
 21
44.78386
  0
LINE
  8
型材断面
  6
CONTINUOUS
 10
-27.623168
 20
44.78386
 11
-30.890228
 21
44.78386
  0
LINE
  8
型材断面
  6
DASHDOT
 10
-29.900342
 20
42.506688
 11
-44.900342
 21
42.506688
  0
LINE
  8
型材断面
  6
DASHDOT
 10
-25.625342
 20
46.781688
 11
-52.400342
 21
20.006688
  0
LINE
  8
型材断面
  6
CONTINUOUS
 10
-48.150342
 20
20.006688
 11
-48.150342
 21
24.256688
  0
LINE
  8
型材断面
  6
CONTINUOUS
 10
-52.400342
 20
24.256688
 11
-48.150342
 21
24.256688
  0
LINE
  8
型材断面
  6
CONTINUOUS
 10
-48.150342
 20
24.256688
 11
-52.400342
 21
20.006688
  0
LINE
  8
型材断面
  6
CONTINUOUS
 10
-27.623168
 20
41.5168
 11
-48.150342
 21
20.98963
  0
LINE
  8
型材断面
  6
CONTINUOUS
 10
-27.623168
 20
44.430307
 11
-48.150342
 21
23.903138
  0
LINE
  8
型材断面
  6
CONTINUOUS
 10
-27.976722
 20
44.78386
 11
-48.5039
 21
24.256688
  0
LINE
  8
型材断面
  6
CONTINUOUS
 10
-30.890228
 20
44.78386
 11
-51.417405
 21
24.256688
  0
LINE
  8
型材断面
  6
CONTINUOUS
 10
-25.926112
 20
46.480918
 11
-25.926112
 21
20.006688
  0
LINE
  8
型材断面
  6
CONTINUOUS
 10
-25.625342
 20
46.781688
 11
-25.625342
 21
20.006688
  0
LINE
  8
型材断面
  6
CONTINUOUS
 10
-26.279665
 20
46.127362
 11
-26.279665
 21
20.006688
  0
LINE
  8
型材断面
  6
CONTINUOUS
 10
-27.269615
 20
45.137413
 11
-27.269615
 21
20.006688
  0
LINE
  8
型材断面
  6
CONTINUOUS
 10
-27.552458
 20
44.85457
 11
-27.552458
 21
20.006688
  0
LINE
  8
型材断面
  6
CONTINUOUS
 10
-27.269615
 20
45.137413
 11
-52.400342
 21
45.137413
  0
LINE
  8
型材断面
  6
CONTINUOUS
 10
-27.552458
 20
44.85457
 11
-52.400342
 21
44.85457
  0
LINE
  8
型材断面
  6
CONTINUOUS
 10
-25.625342
 20
46.781688
 11
-52.400342
 21
46.781688
  0
LINE
  8
型材断面
  6
CONTINUOUS
 10
-26.279665
 20
46.127362
 11
-52.400342
 21
46.127362
  0
LINE
  8
型材断面
  6
CONTINUOUS
 10
-25.926112
 20
46.480918
 11
-52.400342
 21
46.480918
  0
LINE
  8
型材断面
  6
DOT
 10
-34.002588
 20
42.506688
 11
-34.002588
 21
-2.493312
  0
LINE
  8
型材断面
  6
DOT
 10
-32.002588
 20
42.506688
 11
-32.002588
 21
-2.493312
  0
LINE
  8
型材断面
  6
CONTINUOUS
 10
-52.400342
 20
50.530563
 11
-54.643787
 21
54.416323
  0
LINE
  8
型材断面
  6
CONTINUOUS
 10
-52.400342
 20
50.530563
 11
-50.156898
 21
54.416323
  0
LINE
  8
型材断面
  6
CONTINUOUS
 10
-50.156898
 20
54.416323
 11
-54.643787
 21
54.416323
  0
LINE
  8
型材断面
  6
CONTINUOUS
 10
-52.400342
 20
-10.517188
 11
-54.643787
 21
-14.402948
  0
LINE
  8
型材断面
  6
CONTINUOUS
 10
-52.400342
 20
-10.517188
 11
-50.156898
 21
-14.402948
  0
LINE
  8
型材断面
  6
CONTINUOUS
 10
-50.156898
 20
-14.402948
 11
-54.643787
 21
-14.402948
  0
LINE
  8
型材断面
  6
CONTINUOUS
 10
-21.876468
 20
20.006688
 11
-17.990708
 21
22.250132
  0
LINE
  8
型材断面
  6
CONTINUOUS
 10
-21.876468
 20
20.006688
 11
-17.990708
 21
17.763242
  0
LINE
  8
型材断面
  6
CONTINUOUS
 10
-17.990708
 20
17.763242
 11
-17.990708
 21
22.250132
  0
LINE
  8
型材断面
  6
CONTINUOUS
 10
-82.924218
 20
20.006688
 11
-86.809977
 21
22.250132
  0
LINE
  8
型材断面
  6
CONTINUOUS
 10
-82.924218
 20
20.006688
 11
-86.809977
 21
17.763242
  0
LINE
  8
型材断面
  6
CONTINUOUS
 10
-86.809977
 20
17.763242
 11
-86.809977
 21
22.250132
  0
LINE
  8
型材断面
  6
CONTINUOUS
 10
23.052555
 20
19.609335
 11
20.80911
 21
15.723575
  0
LINE
  8
型材断面
  6
CONTINUOUS
 10
23.052555
 20
19.609335
 11
25.296
 21
15.723575
  0
LINE
  8
型材断面
  6
CONTINUOUS
 10
25.296
 20
15.723575
 11
20.80911
 21
15.723575
  0
LINE
  8
型材断面
  6
CONTINUOUS
 10
14.018675
 20
14.315683
 11
66.675355
 21
14.315683
  0
LINE
  8
型材断面
  6
CONTINUOUS
 10
-25.926112
 20
-71.624723
 11
-25.625342
 21
-71.925495
  0
LINE
  8
型材断面
  6
CONTINUOUS
 10
-25.625342
 20
-73.27169
 11
-25.625342
 21
-71.925495
  0
LINE
  8
型材断面
  6
CONTINUOUS
 62
    47
 10
-25.625342
 20
-73.97169
 11
-25.625342
 21
-73.27169
  0
LINE
  8
型材断面
  6
CONTINUOUS
 62
    47
 10
-26.300342
 20
-73.97169
 11
-26.300342
 21
-74.47169
  0
LINE
  8
型材断面
  6
CONTINUOUS
 62
    47
 10
-27.269618
 20
-70.28122
 11
-25.926112
 21
-71.624723
  0
LINE
  8
型材断面
  6
CONTINUOUS
 10
-27.62317
 20
-69.927668
 11
-31.173075
 21
-69.927668
  0
LINE
  8
型材断面
  6
CONTINUOUS
 10
-27.269618
 20
-70.28122
 11
-52.400342
 21
-45.150495
  0
LINE
  8
型材断面
  6
CONTINUOUS
 10
-48.150342
 20
-49.29453
 11
-52.400342
 21
-49.29453
  0
LINE
  8
型材断面
  6
CONTINUOUS
 10
-56.65034
 20
-49.29453
 11
-52.400342
 21
-49.29453
  0
LINE
  8
型材断面
  6
CONTINUOUS
 10
-56.597358
 20
-49.347512
 11
-52.400342
 21
-49.347512
  0
LINE
  8
型材断面
  6
CONTINUOUS
 10
-52.400342
 20
-45.04453
 11
-48.150342
 21
-49.29453
  0
LINE
  8
型材断面
  6
CONTINUOUS
 10
-52.400342
 20
-45.04453
 11
-56.65034
 21
-49.29453
  0
LINE
  8
型材断面
  6
CONTINUOUS
 10
-48.203327
 20
-49.347512
 11
-52.400342
 21
-49.347512
  0
LINE
  8
型材断面
  6
CONTINUOUS
 10
-56.65034
 20
-49.29453
 11
-56.597358
 21
-49.347512
  0
LINE
  8
型材断面
  6
CONTINUOUS
 10
-48.203327
 20
-49.347512
 11
-48.150342
 21
-49.29453
  0
LINE
  8
型材断面
  6
CONTINUOUS
 10
-30.890233
 20
-69.927668
 11
-51.470382
 21
-49.347512
  0
LINE
  8
型材断面
  6
CONTINUOUS
 10
-31.173075
 20
-69.927668
 11
-51.753225
 21
-49.347512
  0
LINE
  8
型材断面
  6
CONTINUOUS
 10
-27.976725
 20
-69.927668
 11
-48.55688
 21
-49.347512
  0
LINE
  8
型材断面
  6
CONTINUOUS
 10
-27.269618
 20
-70.28122
 11
-52.400342
 21
-70.28122
  0
LINE
  8
型材断面
  6
CONTINUOUS
 10
-25.926112
 20
-71.624723
 11
-52.400342
 21
-71.624723
  0
LINE
  8
型材断面
  6
CONTINUOUS
 10
-25.625342
 20
-71.925495
 11
-52.400342
 21
-71.925495
  0
LINE
  8
型材断面
  6
CONTINUOUS
 10
-26.279667
 20
-71.27117
 11
-52.400342
 21
-71.27117
  0
LINE
  8
型材断面
  6
CONTINUOUS
 10
-25.625342
 20
-73.27169
 11
-52.400342
 21
-73.27169
  0
LINE
  8
型材断面
  6
CONTINUOUS
 10
-25.625342
 20
-73.97169
 11
-52.400342
 21
-73.97169
  0
LINE
  8
型材断面
  6
CONTINUOUS
 10
-26.300342
 20
-74.47169
 11
-52.400342
 21
-74.47169
  0
LINE
  8
型材断面
  6
CONTINUOUS
 10
-78.874572
 20
-71.624723
 11
-79.175342
 21
-71.925495
  0
LINE
  8
型材断面
  6
CONTINUOUS
 10
-79.175342
 20
-73.27169
 11
-79.175342
 21
-71.925495
  0
LINE
  8
型材断面
  6
CONTINUOUS
 62
    47
 10
-79.175342
 20
-73.97169
 11
-79.175342
 21
-73.27169
  0
LINE
  8
型材断面
  6
CONTINUOUS
 62
    47
 10
-78.500342
 20
-73.97169
 11
-78.500342
 21
-74.47169
  0
LINE
  8
型材断面
  6
CONTINUOUS
 62
    47
 10
-77.531067
 20
-70.28122
 11
-78.874572
 21
-71.624723
  0
LINE
  8
型材断面
  6
CONTINUOUS
 10
-77.177515
 20
-69.927668
 11
-73.62761
 21
-69.927668
  0
LINE
  8
型材断面
  6
CONTINUOUS
 10
-77.531067
 20
-70.28122
 11
-52.400342
 21
-45.150495
  0
LINE
  8
型材断面
  6
CONTINUOUS
 10
-73.910452
 20
-69.927668
 11
-53.330303
 21
-49.347512
  0
LINE
  8
型材断面
  6
CONTINUOUS
 10
-73.62761
 20
-69.927668
 11
-53.04746
 21
-49.347512
  0
LINE
  8
型材断面
  6
CONTINUOUS
 10
-76.82396
 20
-69.927668
 11
-56.243805
 21
-49.347512
  0
LINE
  8
型材断面
  6
CONTINUOUS
 10
-77.531067
 20
-70.28122
 11
-52.400342
 21
-70.28122
  0
LINE
  8
型材断面
  6
CONTINUOUS
 10
-78.874572
 20
-71.624723
 11
-52.400342
 21
-71.624723
  0
LINE
  8
型材断面
  6
CONTINUOUS
 10
-79.175342
 20
-71.925495
 11
-52.400342
 21
-71.925495
  0
LINE
  8
型材断面
  6
CONTINUOUS
 10
-78.521018
 20
-71.27117
 11
-52.400342
 21
-71.27117
  0
LINE
  8
型材断面
  6
CONTINUOUS
 10
-79.175342
 20
-73.27169
 11
-52.400342
 21
-73.27169
  0
LINE
  8
型材断面
  6
CONTINUOUS
 10
-79.175342
 20
-73.97169
 11
-52.400342
 21
-73.97169
  0
LINE
  8
型材断面
  6
CONTINUOUS
 10
-78.500342
 20
-74.47169
 11
-52.400342
 21
-74.47169
  0
LINE
  8
型材断面
  6
DASHDOT
 10
-29.900342
 20
42.506688
 11
-29.900342
 21
-80.69669
  0
LINE
  8
型材断面
  6
DASHDOT
 10
-52.400342
 20
42.506688
 11
-52.400342
 21
-80.69669
  0
LINE
  8
型材断面
  6
DASHDOT
 10
-74.900342
 20
42.506688
 11
-74.900342
 21
-80.69669
  0
LINE
  8
型材断面
  6
CONTINUOUS
 10
14.018675
 20
7.642902
 11
66.675355
 21
7.642902
  0
LINE
  8
型材断面
  6
CONTINUOUS
 10
88.269398
 20
-48.146413
 11
112.20102
 21
-48.146413
  0
LINE
  8
ガラス
  6
CONTINUOUS
 10
-50.355472
 20
7.458828
 11
-54.228107
 21
3.586192
  0
LINE
  8
ガラス
  6
CONTINUOUS
 10
-51.235795
 20
5.86047
 11
-52.62975
 21
4.466515
  0
LINE
  8
ガラス
  6
CONTINUOUS
 10
-51.95383
 20
6.578505
 11
-53.347785
 21
5.18455
  0
LINE
  8
ガラス
  6
CONTINUOUS
 10
-50.355472
 20
36.263537
 11
-54.228107
 21
32.390903
  0
LINE
  8
ガラス
  6
CONTINUOUS
 10
-51.235795
 20
34.66518
 11
-52.62975
 21
33.271225
  0
LINE
  8
ガラス
  6
CONTINUOUS
 10
-51.95383
 20
35.383215
 11
-53.347785
 21
33.98926
  0
LINE
  8
ガラス
  6
CONTINUOUS
 10
-34.37463
 20
21.937563
 11
-38.247265
 21
18.064927
  0
LINE
  8
ガラス
  6
CONTINUOUS
 10
-35.254953
 20
20.339205
 11
-36.648908
 21
18.94525
  0
LINE
  8
ガラス
  6
CONTINUOUS
 10
-35.972988
 20
21.05724
 11
-37.366943
 21
19.663285
  0
LINE
  8
ガラス
  6
CONTINUOUS
 10
-65.86132
 20
21.937563
 11
-69.733955
 21
18.064927
  0
LINE
  8
ガラス
  6
CONTINUOUS
 10
-66.741643
 20
20.339205
 11
-68.135598
 21
18.94525
  0
LINE
  8
ガラス
  6
CONTINUOUS
 10
-67.459677
 20
21.05724
 11
-68.853633
 21
19.663285
  0
LINE
  8
ガラス
  6
CONTINUOUS
 10
-50.403075
 20
6.520555
 11
-54.27571
 21
2.64792
  0
LINE
  8
ガラス
  6
CONTINUOUS
 10
-51.283397
 20
4.922198
 11
-52.677352
 21
3.528242
  0
LINE
  8
ガラス
  6
CONTINUOUS
 10
-52.001433
 20
5.640232
 11
-53.395388
 21
4.246277
  0
LINE
  8
ガラス
  6
CONTINUOUS
 10
-34.347
 20
21.93236
 11
-38.219635
 21
18.059725
  0
LINE
  8
ガラス
  6
CONTINUOUS
 10
-35.227322
 20
20.334002
 11
-36.621277
 21
18.940048
  0
LINE
  8
ガラス
  6
CONTINUOUS
 10
-35.945357
 20
21.052038
 11
-37.339312
 21
19.658082
  0
LINE
  8
ガラス
  6
CONTINUOUS
 10
-66.591097
 20
21.93236
 11
-70.463732
 21
18.059725
  0
LINE
  8
ガラス
  6
CONTINUOUS
 10
-67.47142
 20
20.334002
 11
-68.865375
 21
18.940048
  0
LINE
  8
ガラス
  6
CONTINUOUS
 10
-68.189455
 20
21.052038
 11
-69.58341
 21
19.658082
  0
LINE
  8
ガラス
  6
CONTINUOUS
 10
-50.403075
 20
38.69434
 11
-54.27571
 21
34.821705
  0
LINE
  8
ガラス
  6
CONTINUOUS
 10
-51.283397
 20
37.095982
 11
-52.677352
 21
35.702028
  0
LINE
  8
ガラス
  6
CONTINUOUS
 10
-52.001433
 20
37.814018
 11
-53.395388
 21
36.420062
  0
LINE
  8
ガラス
  6
CONTINUOUS
 10
-50.355472
 20
-58.957093
 11
-54.228107
 21
-62.829727
  0
LINE
  8
ガラス
  6
CONTINUOUS
 10
-51.235795
 20
-60.55545
 11
-52.62975
 21
-61.949405
  0
LINE
  8
ガラス
  6
CONTINUOUS
 10
-51.95383
 20
-59.837415
 11
-53.347785
 21
-61.23137
  0
TEXT
  7
TextStyle03
  8
文字
  6
CONTINUOUS
 10
27.35
 20
16.025
  1
は排水穴位置を示す
 40
3.0
 72
     5
 11
57.35
 21
16.025
  0
TEXT
  7
TextStyle03
  8
文字
  6
CONTINUOUS
 10
21.75
 20
9.0
  1
アンカー数量　６ヶ所
 40
3.0
 72
     5
 11
55.125
 21
9.0
  0
TEXT
  7
TextStyle03
  8
文字
  6
CONTINUOUS
 10
-81.325
 20
65.725
  1
アンカーピッチ
 40
3.0
 72
     5
 11
-58.075
 21
65.725
  0
TEXT
  7
TextStyle03
  8
文字
  6
CONTINUOUS
 10
-104.975
 20
-12.375
  1
アンカーピッチ
 40
3.0
 50
90.0
 72
     5
 11
-104.975
 21
10.875
  0
TEXT
  7
TextStyle03
  8
文字
  6
CONTINUOUS
 10
66.475
 20
93.175
  1
ＮＳコード：ＮＳ４ＣＫＳ
 40
5.0
 72
     5
 11
133.35
 21
93.175
  0
TEXT
  7
TextStyle03
  8
文字
  6
CONTINUOUS
 10
134.0
 20
-75.25
  1
×４枚
 40
3.0
 72
     5
 11
143.75
 21
-75.25
  0
TEXT
  7
TextStyle03
  8
文字
  6
CONTINUOUS
 10
91.875
 20
-46.95
  1
ガラス寸法
 40
3.0
 72
     5
 11
108.375
 21
-46.95
  0
TEXT
  7
TextStyle03
  8
文字
  6
CONTINUOUS
 10
66.275
 20
120.625
  1
シリーズ：ＳＴＦ４Ｋ
 40
5.0
 72
     5
 11
121.9
 21
120.625
  0
TEXT
  7
TextStyle03
  8
文字
  6
CONTINUOUS
 10
66.275
 20
115.0
  1
　　　　　四角錘（固定）900×900タイプ
 40
5.0
 72
     5
 11
172.525
 21
115.0
  0
TEXT
  7
TextStyle03
  8
文字
  6
CONTINUOUS
 10
66.275
 20
109.375
  1
　　　　　ペアガラス仕様
 40
5.0
 72
     5
 11
133.15
 21
109.375
  0
TEXT
  7
TextStyle03
  8
文字
  6
CONTINUOUS
 10
66.275
 20
103.75
  1
図面名　：外観姿図
 40
5.0
 72
     5
 11
116.275
 21
103.75
  0
TEXT
  7
TextStyle03
  8
文字
  6
CONTINUOUS
 10
66.275
 20
98.125
  1
　　　　　　
 40
5.0
 72
     5
 11
99.4
 21
98.125
  0
INSERT
  2
*DIM_0002
  8
寸法
  6
CONTINUOUS
 10
0.0
 20
0.0
  0
INSERT
  2
*DIM_0003
  8
寸法
  6
CONTINUOUS
 10
0.0
 20
0.0
  0
INSERT
  2
*DIM_0004
  8
寸法
  6
CONTINUOUS
 10
0.0
 20
0.0
  0
INSERT
  2
*DIM_0005
  8
寸法
  6
CONTINUOUS
 10
0.0
 20
0.0
  0
INSERT
  2
*DIM_0006
  8
寸法
  6
CONTINUOUS
 10
0.0
 20
0.0
  0
INSERT
  2
*DIM_0007
  8
寸法
  6
CONTINUOUS
 10
0.0
 20
0.0
  0
INSERT
  2
*DIM_0008
  8
寸法
  6
CONTINUOUS
 10
0.0
 20
0.0
  0
INSERT
  2
*DIM_0009
  8
寸法
  6
CONTINUOUS
 10
0.0
 20
0.0
  0
INSERT
  2
*DIM_0010
  8
寸法
  6
CONTINUOUS
 10
0.0
 20
0.0
  0
INSERT
  2
*DIM_0011
  8
寸法
  6
CONTINUOUS
 10
0.0
 20
0.0
  0
CIRCLE
  8
寸法
  6
CONTINUOUS
 10
-93.9187
 20
20.006688
 40
1.73792
  0
INSERT
  2
*DIM_0012
  8
寸法
  6
CONTINUOUS
 10
0.0
 20
0.0
  0
INSERT
  2
*DIM_0013
  8
寸法
  6
CONTINUOUS
 10
0.0
 20
0.0
  0
LINE
  8
曲げ物
  6
CONTINUOUS
 10
149.378162
 20
-77.399633
 11
102.758163
 21
-77.399633
  0
LINE
  8
曲げ物
  6
CONTINUOUS
 10
102.758163
 20
-77.399633
 11
126.068162
 21
-44.434453
  0
LINE
  8
曲げ物
  6
CONTINUOUS
 10
149.378162
 20
-77.399633
 11
126.068162
 21
-44.434453
  0
ENDSEC
  0
EOF
