  0
SECTION
  2
HEADER
  9
$EXTMIN
 10
-210.0
 20
-148.5
  9
$EXTMAX
 10
210.0
 20
148.5
  9
$PDMODE
 70
    32
  9
$PDSIZE
 40
1.5
  9
$LTSCALE
 40
10.0
  0
ENDSEC
  0
SECTION
  2
TABLES
  0
TABLE
  2
LTYPE
 70
    15
  0
LTYPE
  2
CONTINUOUS
 70
    64
  3
実線
 72
    65
 73
     0
 40
0.0
  0
LTYPE
  2
DASHED
 70
    64
  3
破線A
 72
    65
 73
     2
 40
0.6
 49
0.4
 49
-0.2
  0
LTYPE
  2
DASHEDX2
 70
    64
  3
破線B
 72
    65
 73
     2
 40
1.3
 49
0.9
 49
-0.4
  0
LTYPE
  2
DASHDOT
 70
    64
  3
１点鎖線A
 72
    65
 73
     4
 40
0.5375
 49
0.375
 49
-0.05
 49
0.0625
 49
-0.05
  0
LTYPE
  2
DASHDOTX2
 70
    64
  3
１点鎖線B
 72
    65
 73
     4
 40
1.075
 49
0.75
 49
-0.1
 49
0.125
 49
-0.1
  0
LTYPE
  2
DIVIDE2
 70
    64
  3
２点鎖線A
 72
    65
 73
     6
 40
0.5125
 49
0.3
 49
-0.0375
 49
0.05
 49
-0.0375
 49
0.05
 49
-0.0375
  0
LTYPE
  2
DIVIDE
 70
    64
  3
２点鎖線B
 72
    65
 73
     6
 40
1.05
 49
0.55
 49
-0.1
 49
0.1
 49
-0.1
 49
0.1
 49
-0.1
  0
LTYPE
  2
DOT
 70
    64
  3
点線A
 72
    65
 73
     2
 40
0.1125
 49
0.0625
 49
-0.05
  0
LTYPE
  2
DOTX2
 70
    64
  3
点線B
 72
    65
 73
     2
 40
0.275
 49
0.15
 49
-0.125
  0
LTYPE
  2
CONTINUOUS
 70
    64
  3
実線
 72
    65
 73
     0
 40
0.0
  0
LTYPE
  2
CONTINUOUS
 70
    64
  3
実線
 72
    65
 73
     0
 40
0.0
  0
LTYPE
  2
CONTINUOUS
 70
    64
  3
実線
 72
    65
 73
     0
 40
0.0
  0
LTYPE
  2
CONTINUOUS
 70
    64
  3
実線
 72
    65
 73
     0
 40
0.0
  0
LTYPE
  2
CONTINUOUS
 70
    64
  3
実線
 72
    65
 73
     0
 40
0.0
  0
LTYPE
  2
CONTINUOUS
 70
    64
  3
実線
 72
    65
 73
     0
 40
0.0
  0
ENDTAB
  0
TABLE
  2
LAYER
 70
    34
  0
LAYER
  2
通り芯
 70
     0
 62
    15
  6
CONTINUOUS
  0
LAYER
  2
補助線
 70
     0
 62
    16
  6
DOT
  0
LAYER
  2
躯体
 70
     0
 62
    31
  6
CONTINUOUS
  0
LAYER
  2
型材
 70
     0
 62
    32
  6
CONTINUOUS
  0
LAYER
  2
型材断面
 70
     0
 62
    47
  6
CONTINUOUS
  0
LAYER
  2
ガラス
 70
     0
 62
    48
  6
CONTINUOUS
  0
LAYER
  2
ゴム等
 70
     0
 62
    63
  6
CONTINUOUS
  0
LAYER
  2
ボルト／ビス
 70
     0
 62
    64
  6
CONTINUOUS
  0
LAYER
  2
文字
 70
     0
 62
    79
  6
CONTINUOUS
  0
LAYER
  2
寸法
 70
     0
 62
    80
  6
CONTINUOUS
  0
LAYER
  2
ﾊｯﾁﾝｸﾞ
 70
     0
 62
    95
  6
CONTINUOUS
  0
LAYER
  2
別途部材
 70
     0
 62
    96
  6
CONTINUOUS
  0
LAYER
  2
曲げ物
 70
     0
 62
   111
  6
CONTINUOUS
  0
LAYER
  2
鉄骨等
 70
     0
 62
   112
  6
CONTINUOUS
  0
LAYER
  2
St
 70
     0
 62
   127
  6
CONTINUOUS
  0
LAYER
  2
その他部品等
 70
     0
 62
   128
  6
CONTINUOUS
  0
LAYER
  2
ｶﾞｽｹｯﾄ
 70
     0
 62
   143
  6
CONTINUOUS
  0
LAYER
  2
ｽｹｯﾁ
 70
     0
 62
    14
  6
CONTINUOUS
  0
LAYER
  2
0
 70
     0
 62
    17
  6
CONTINUOUS
  0
LAYER
  2
1
 70
     0
 62
    30
  6
CONTINUOUS
  0
LAYER
  2
4
 70
     0
 62
    33
  6
CONTINUOUS
  0
LAYER
  2
ﾚｲﾔ3
 70
     0
 62
    46
  6
CONTINUOUS
  0
LAYER
  2
外形線
 70
     0
 62
    49
  6
CONTINUOUS
  0
LAYER
  2
部品
 70
     0
 62
    14
  6
CONTINUOUS
  0
LAYER
  2
サッシ芯
 70
     0
 62
    17
  6
DASHDOTX2
  0
LAYER
  2
寸法線
 70
     0
 62
    62
  6
CONTINUOUS
  0
LAYER
  2
姿図外形線
 70
     0
 62
    65
  6
CONTINUOUS
  0
LAYER
  2
姿補助線
 70
     0
 62
    30
  6
CONTINUOUS
  0
LAYER
  2
透視線
 70
     0
 62
    78
  6
DOT
  0
LAYER
  2
用紙
 70
     0
 62
    81
  6
CONTINUOUS
  0
LAYER
  2
実線図枠
 70
     0
 62
    94
  6
CONTINUOUS
  0
LAYER
  2
補助図枠
 70
     0
 62
    97
  6
CONTINUOUS
  0
LAYER
  2
建具記号
 70
     0
 62
   110
  6
CONTINUOUS
  0
LAYER
  2
補助文字
 70
     0
 62
   113
  6
CONTINUOUS
  0
ENDTAB
  0
TABLE
  2
STYLE
 70
    10
  0
STYLE
  2
STANDARD
 70
     0
 40
1.0
 41
1.0
 42
1.0
 50
0.0
 71
     0
  3
TXT
  4
BIGFONT
  0
STYLE
  2
TATE
 70
     4
 40
1.0
 41
1.0
 42
1.0
 50
0.0
 71
     0
  3
TXT
  4
BIGFONT
  0
STYLE
  2
TextStyle03
 70
     0
 40
1.0
 41
1.0
 42
1.0
 50
0.0
 71
     0
  3
MONOTXT
  4
BIGFONT
  0
STYLE
  2
TextStyle04
 70
     0
 40
1.0
 41
1.0
 42
1.0
 50
0.0
 71
     0
  3
MONOTXT
  4
BIGFONT
  0
STYLE
  2
TextStyle05
 70
     0
 40
1.0
 41
1.0
 42
1.0
 50
0.0
 71
     0
  3
MONOTXT
  4
BIGFONT
  0
STYLE
  2
TextStyle06
 70
     0
 40
1.0
 41
1.0
 42
1.0
 50
0.0
 71
     0
  3
MONOTXT
  4
BIGFONT
  0
STYLE
  2
TextStyle07
 70
     0
 40
1.0
 41
1.0
 42
1.0
 50
0.0
 71
     0
  3
MONOTXT
  4
BIGFONT
  0
STYLE
  2
TextStyle08
 70
     0
 40
1.0
 41
1.0
 42
1.0
 50
0.0
 71
     0
  3
MONOTXT
  4
BIGFONT
  0
STYLE
  2
TextStyle09
 70
     0
 40
1.0
 41
1.0
 42
1.0
 50
0.0
 71
     0
  3
MONOTXT
  4
BIGFONT
  0
STYLE
  2
TextStyle10
 70
     0
 40
1.0
 41
1.0
 42
1.0
 50
0.0
 71
     0
  3
MONOTXT
  4
BIGFONT
  0
ENDTAB
  0
ENDSEC
  0
SECTION
  2
BLOCKS
  0
BLOCK
  2
*GRP_0001
 70
    65
 10
0.0
 20
0.0
  0
LINE
  8
型材断面
  6
CONTINUOUS
 10
195.0
 20
133.5
 11
195.0
 21
-133.5
  0
LINE
  8
型材断面
  6
CONTINUOUS
 10
195.0
 20
-133.5
 11
-185.0
 21
-133.5
  0
LINE
  8
型材断面
  6
CONTINUOUS
 10
-185.0
 20
-133.5
 11
-185.0
 21
133.5
  0
LINE
  8
型材断面
  6
CONTINUOUS
 10
195.0
 20
133.5
 11
-185.0
 21
133.5
  0
LINE
  8
型材断面
  6
CONTINUOUS
 10
145.0
 20
-133.5
 11
145.0
 21
-118.5
  0
LINE
  8
型材断面
  6
CONTINUOUS
 10
195.0
 20
-118.5
 11
145.0
 21
-118.5
  0
ENDBLK
  0
BLOCK
  2
*DIM_0002
 70
    65
 10
0.0
 20
0.0
  0
LINE
  8
寸法
  6
BYBLOCK
 62
     0
 10
-81.523975
 20
-69.325857
 11
-10.395088
 21
-69.325857
  0
LINE
  8
寸法
  6
BYBLOCK
 62
     0
 10
-10.395088
 20
-123.706823
 11
-10.395088
 21
-69.325857
  0
POINT
  8
寸法
 62
     0
 10
-10.395088
 20
-123.706823
  0
POINT
  8
寸法
 62
     0
 10
-10.395088
 20
-69.325857
  0
TEXT
  7
TextStyle03
  8
寸法
  6
CONTINUOUS
 62
     0
 10
-10.8
 20
-101.41875
  1
1087.6
 40
3.0
 50
90.0
 72
     5
 11
-10.8
 21
-91.48125
  0
ENDBLK
  0
BLOCK
  2
*DIM_0003
 70
    65
 10
0.0
 20
0.0
  0
LINE
  8
寸法
  6
BYBLOCK
 62
     0
 10
-132.523975
 20
-53.533648
 11
-132.523975
 21
-53.20492
  0
LINE
  8
寸法
  6
BYBLOCK
 62
     0
 10
-32.523975
 20
-53.533648
 11
-32.523975
 21
-53.20492
  0
LINE
  8
寸法
  6
BYBLOCK
 62
     0
 10
-132.523975
 20
-53.20492
 11
-32.523975
 21
-53.20492
  0
POINT
  8
寸法
 62
     0
 10
-132.523975
 20
-53.20492
  0
POINT
  8
寸法
 62
     0
 10
-32.523975
 20
-53.20492
  0
TEXT
  7
TextStyle03
  8
寸法
  6
CONTINUOUS
 62
     0
 10
-94.26875
 20
-52.8
  1
呼称寸法　2000
 40
3.0
 72
     5
 11
-70.83125
 21
-52.8
  0
ENDBLK
  0
BLOCK
  2
*DIM_0004
 70
    65
 10
0.0
 20
0.0
  0
LINE
  8
寸法
  6
BYBLOCK
 62
     0
 10
-28.248975
 20
-122.706823
 11
-28.248975
 21
-53.20492
  0
LINE
  8
寸法
  6
BYBLOCK
 62
     0
 10
-32.523975
 20
-53.20492
 11
-28.248975
 21
-53.20492
  0
POINT
  8
寸法
 62
     0
 10
-28.248975
 20
-53.20492
  0
TEXT
  7
TextStyle03
  8
寸法
  6
CONTINUOUS
 62
     0
 10
-26.95625
 20
-52.8
  1
85.5
 40
3.0
 72
     5
 11
-20.39375
 21
-52.8
  0
ENDBLK
  0
BLOCK
  2
*DIM_0005
 70
    65
 10
0.0
 20
0.0
  0
LINE
  8
寸法
  6
BYBLOCK
 62
     0
 10
-136.798975
 20
-122.706823
 11
-136.798975
 21
-53.20492
  0
LINE
  8
寸法
  6
BYBLOCK
 62
     0
 10
-132.523975
 20
-53.20492
 11
-136.798975
 21
-53.20492
  0
POINT
  8
寸法
 62
     0
 10
-132.523975
 20
-53.20492
  0
POINT
  8
寸法
 62
     0
 10
-136.798975
 20
-53.20492
  0
TEXT
  7
TextStyle03
  8
寸法
  6
CONTINUOUS
 62
     0
 10
-144.73125
 20
-52.8
  1
85.5
 40
3.0
 72
     5
 11
-138.16875
 21
-52.8
  0
ENDBLK
  0
BLOCK
  2
*DIM_0006
 70
    65
 10
0.0
 20
0.0
  0
LINE
  8
寸法
  6
BYBLOCK
 62
     0
 10
-27.248975
 20
-123.706823
 11
-10.395088
 21
-123.706823
  0
LINE
  8
寸法
  6
BYBLOCK
 62
     0
 10
-27.248975
 20
-124.9752
 11
-10.395088
 21
-124.9752
  0
LINE
  8
寸法
  6
BYBLOCK
 62
     0
 10
-10.395088
 20
-123.706823
 11
-10.395088
 21
-124.9752
  0
POINT
  8
寸法
 62
     0
 10
-10.395088
 20
-123.706823
  0
POINT
  8
寸法
 62
     0
 10
-10.395088
 20
-124.9752
  0
TEXT
  7
TextStyle03
  8
寸法
  6
CONTINUOUS
 62
     0
 10
-7.425
 20
-127.60625
  1
25.5
 40
3.0
 50
90.0
 72
     5
 11
-7.425
 21
-121.04375
  0
ENDBLK
  0
BLOCK
  2
*DIM_0007
 70
    65
 10
0.0
 20
0.0
  0
LINE
  8
寸法
  6
BYBLOCK
 62
     0
 10
-90.023975
 20
-75.825863
 11
-90.023975
 21
-61.395
  0
LINE
  8
寸法
  6
BYBLOCK
 62
     0
 10
-75.023975
 20
-75.825863
 11
-75.023975
 21
-61.395
  0
LINE
  8
寸法
  6
BYBLOCK
 62
     0
 10
-90.023975
 20
-61.395
 11
-75.023975
 21
-61.395
  0
POINT
  8
寸法
 62
     0
 10
-90.023975
 20
-61.395
  0
POINT
  8
寸法
 62
     0
 10
-75.023975
 20
-61.395
  0
TEXT
  7
TextStyle03
  8
寸法
  6
CONTINUOUS
 62
     0
 10
-85.8
 20
-61.0
  1
300
 40
4.0
 72
     5
 11
-79.3
 21
-61.0
  0
ENDBLK
  0
BLOCK
  2
*DIM_0008
 70
    65
 10
0.0
 20
0.0
  0
LINE
  8
寸法
  6
BYBLOCK
 62
     0
 10
-74.023975
 20
-76.825863
 11
-56.825
 21
-76.825863
  0
LINE
  8
寸法
  6
BYBLOCK
 62
     0
 10
-56.825
 20
-69.325857
 11
-56.825
 21
-76.825863
  0
POINT
  8
寸法
 62
     0
 10
-56.825
 20
-69.325857
  0
POINT
  8
寸法
 62
     0
 10
-56.825
 20
-76.825863
  0
TEXT
  7
TextStyle03
  8
寸法
  6
CONTINUOUS
 62
     0
 10
-57.225
 20
-76.3
  1
150
 40
4.0
 50
90.0
 72
     5
 11
-57.225
 21
-69.8
  0
ENDBLK
  0
BLOCK
  2
*DIM_0009
 70
    65
 10
0.0
 20
0.0
  0
LINE
  8
寸法
  6
BYBLOCK
 62
     0
 10
-117.523975
 20
104.737248
 11
-117.523975
 21
115.668002
  0
LINE
  8
寸法
  6
BYBLOCK
 62
     0
 10
-82.523975
 20
104.737248
 11
-82.523975
 21
115.668002
  0
LINE
  8
寸法
  6
BYBLOCK
 62
     0
 10
-117.523975
 20
115.668002
 11
-82.523975
 21
115.668002
  0
POINT
  8
寸法
 62
     0
 10
-117.523975
 20
115.668002
  0
POINT
  8
寸法
 62
     0
 10
-82.523975
 20
115.668002
  0
TEXT
  7
TextStyle03
  8
寸法
  6
CONTINUOUS
 62
     0
 10
-102.4875
 20
116.075
  1
700
 40
3.0
 72
     5
 11
-97.6125
 21
116.075
  0
ENDBLK
  0
BLOCK
  2
*DIM_0010
 70
    65
 10
0.0
 20
0.0
  0
LINE
  8
寸法
  6
BYBLOCK
 62
     0
 10
-47.523975
 20
104.737248
 11
-47.523975
 21
115.668002
  0
LINE
  8
寸法
  6
BYBLOCK
 62
     0
 10
-82.523975
 20
115.668002
 11
-47.523975
 21
115.668002
  0
POINT
  8
寸法
 62
     0
 10
-47.523975
 20
115.668002
  0
TEXT
  7
TextStyle03
  8
寸法
  6
CONTINUOUS
 62
     0
 10
-67.4875
 20
116.075
  1
700
 40
3.0
 72
     5
 11
-62.6125
 21
116.075
  0
ENDBLK
  0
BLOCK
  2
*DIM_0011
 70
    65
 10
0.0
 20
0.0
  0
LINE
  8
寸法
  6
BYBLOCK
 62
     0
 10
-157.778975
 20
64.482248
 11
-168.70973
 21
64.48225
  0
LINE
  8
寸法
  6
BYBLOCK
 62
     0
 10
-157.778978
 20
29.482248
 11
-168.709732
 21
29.48225
  0
LINE
  8
寸法
  6
BYBLOCK
 62
     0
 10
-168.70973
 20
64.48225
 11
-168.709732
 21
29.48225
  0
POINT
  8
寸法
 62
     0
 10
-168.70973
 20
64.48225
  0
POINT
  8
寸法
 62
     0
 10
-168.709732
 20
29.48225
  0
TEXT
  7
TextStyle03
  8
寸法
  6
CONTINUOUS
 62
     0
 10
-169.1
 20
44.5625
  1
700
 40
3.0
 50
90.0
 72
     5
 11
-169.1
 21
49.4375
  0
ENDBLK
  0
BLOCK
  2
*DIM_0012
 70
    65
 10
0.0
 20
0.0
  0
LINE
  8
寸法
  6
BYBLOCK
 62
     0
 10
-157.778978
 20
29.482248
 11
-168.709732
 21
29.482252
  0
LINE
  8
寸法
  6
BYBLOCK
 62
     0
 10
-157.77898
 20
-5.517753
 11
-168.709735
 21
-5.517748
  0
LINE
  8
寸法
  6
BYBLOCK
 62
     0
 10
-168.709732
 20
29.482252
 11
-168.709735
 21
-5.517748
  0
POINT
  8
寸法
 62
     0
 10
-168.709735
 20
-5.517748
  0
TEXT
  7
TextStyle03
  8
寸法
  6
CONTINUOUS
 62
     0
 10
-169.1
 20
9.5625
  1
700
 40
3.0
 50
90.0
 72
     5
 11
-169.1
 21
14.4375
  0
ENDBLK
  0
BLOCK
  2
*DIM_0013
 70
    65
 10
0.0
 20
0.0
  0
LINE
  8
寸法
  6
BYBLOCK
 62
     0
 10
100.548095
 20
-85.344413
 11
100.548095
 21
-97.772508
  0
LINE
  8
寸法
  6
BYBLOCK
 62
     0
 10
150.343093
 20
-85.344413
 11
150.343093
 21
-97.772508
  0
LINE
  8
寸法
  6
BYBLOCK
 62
     0
 10
100.548095
 20
-97.772508
 11
150.343093
 21
-97.772508
  0
POINT
  8
寸法
 62
     0
 10
100.548095
 20
-97.772508
  0
POINT
  8
寸法
 62
     0
 10
150.343093
 20
-97.772508
  0
TEXT
  7
TextStyle03
  8
寸法
  6
CONTINUOUS
 62
     0
 10
121.3
 20
-97.4
  1
995.9
 40
3.0
 72
     5
 11
129.55
 21
-97.4
  0
ENDBLK
  0
BLOCK
  2
*DIM_0014
 70
    65
 10
0.0
 20
0.0
  0
LINE
  8
寸法
  6
BYBLOCK
 62
     0
 10
153.343093
 20
-82.344413
 11
163.164742
 21
-82.344413
  0
LINE
  8
寸法
  6
BYBLOCK
 62
     0
 10
153.343093
 20
-11.923955
 11
163.164742
 21
-11.923955
  0
LINE
  8
寸法
  6
BYBLOCK
 62
     0
 10
163.164742
 20
-82.344413
 11
163.164742
 21
-11.923955
  0
POINT
  8
寸法
 62
     0
 10
163.164742
 20
-82.344413
  0
POINT
  8
寸法
 62
     0
 10
163.164742
 20
-11.923955
  0
TEXT
  7
TextStyle03
  8
寸法
  6
CONTINUOUS
 62
     0
 10
162.775
 20
-52.11875
  1
1408.4
 40
3.0
 50
90.0
 72
     5
 11
162.775
 21
-42.18125
  0
ENDBLK
  0
ENDSEC
  0
SECTION
  2
ENTITIES
  0
POLYLINE
  8
通り芯
  6
CONTINUOUS
 66
     1
 70
     1
  0
VERTEX
  8
通り芯
 10
-210.0
 20
-148.5
  0
VERTEX
  8
通り芯
 10
210.0
 20
-148.5
  0
VERTEX
  8
通り芯
 10
210.0
 20
148.5
  0
VERTEX
  8
通り芯
 10
-210.0
 20
148.5
  0
SEQEND
  0
INSERT
  2
*GRP_0001
  8
型材断面
  6
CONTINUOUS
 10
0.0
 20
0.0
  0
LINE
  8
型材断面
  6
CONTINUOUS
 10
-7.622443
 20
6.041205
 11
-9.865888
 21
2.155445
  0
LINE
  8
型材断面
  6
CONTINUOUS
 10
-7.622443
 20
6.041205
 11
-5.378997
 21
2.155445
  0
LINE
  8
型材断面
  6
CONTINUOUS
 10
-5.378997
 20
2.155445
 11
-9.865888
 21
2.155445
  0
LINE
  8
型材断面
  6
CONTINUOUS
 10
-16.656322
 20
0.747552
 11
36.000358
 21
0.747552
  0
LINE
  8
型材断面
  6
CONTINUOUS
 10
-16.656322
 20
-6.42672
 11
36.000358
 21
-6.42672
  0
LINE
  8
型材断面
  6
CONTINUOUS
 10
-28.248975
 20
-24.792753
 11
-35.398975
 21
-17.642753
  0
LINE
  8
型材断面
  6
CONTINUOUS
 10
-33.142043
 20
-22.335305
 11
-30.706423
 21
-22.335305
  0
LINE
  8
型材断面
  6
CONTINUOUS
 10
-30.706423
 20
-19.899685
 11
-30.706423
 21
-22.335305
  0
LINE
  8
型材断面
  6
DASHDOT
 10
-32.523975
 20
-20.517753
 11
-32.523975
 21
-5.517753
  0
LINE
  8
型材断面
  6
CONTINUOUS
 10
-29.292208
 20
-23.74952
 11
-82.523975
 21
-23.74952
  0
LINE
  8
型材断面
  6
CONTINUOUS
 10
-28.248975
 20
-24.792753
 11
-82.523975
 21
-24.792753
  0
LINE
  8
型材断面
  6
CONTINUOUS
 10
-30.35287
 20
-22.688857
 11
-82.523975
 21
-22.688857
  0
LINE
  8
型材断面
  6
CONTINUOUS
 10
-30.635713
 20
-22.406015
 11
-82.523975
 21
-22.406015
  0
LINE
  8
型材断面
  6
CONTINUOUS
 10
-29.645763
 20
-23.395965
 11
-82.523975
 21
-23.395965
  0
LINE
  8
型材断面
  6
DASHDOT
 10
-32.523975
 20
-20.517753
 11
-132.523975
 21
-20.517753
  0
LINE
  8
型材断面
  6
DASHDOT
 10
-32.523975
 20
29.482248
 11
-132.523975
 21
29.482248
  0
LINE
  8
型材断面
  6
DASHDOT
 10
-32.523975
 20
79.482248
 11
-132.523975
 21
79.482248
  0
LINE
  8
型材断面
  6
DASHDOT
 10
-32.523975
 20
-20.517753
 11
-78.273975
 21
25.232248
  0
LINE
  8
型材断面
  6
CONTINUOUS
 10
-30.635713
 20
-22.406015
 11
-30.635713
 21
29.482248
  0
LINE
  8
型材断面
  6
CONTINUOUS
 10
-30.35287
 20
-22.688857
 11
-30.35287
 21
29.482248
  0
LINE
  8
型材断面
  6
CONTINUOUS
 10
-29.645763
 20
-23.395965
 11
-29.645763
 21
29.482248
  0
LINE
  8
型材断面
  6
CONTINUOUS
 10
-29.292208
 20
-23.74952
 11
-29.292208
 21
29.482248
  0
LINE
  8
型材断面
  6
CONTINUOUS
 10
-28.248975
 20
-24.792753
 11
-28.248975
 21
29.482248
  0
LINE
  8
型材断面
  6
CONTINUOUS
 10
-136.798975
 20
-24.792753
 11
-129.648975
 21
-17.642753
  0
LINE
  8
型材断面
  6
CONTINUOUS
 10
-131.905908
 20
-22.335305
 11
-134.341528
 21
-22.335305
  0
LINE
  8
型材断面
  6
CONTINUOUS
 10
-134.341528
 20
-19.899685
 11
-134.341528
 21
-22.335305
  0
LINE
  8
型材断面
  6
DASHDOT
 10
-132.523975
 20
-20.517753
 11
-132.523975
 21
-5.517753
  0
LINE
  8
型材断面
  6
CONTINUOUS
 10
-135.755743
 20
-23.74952
 11
-82.523975
 21
-23.74952
  0
LINE
  8
型材断面
  6
CONTINUOUS
 10
-136.798975
 20
-24.792753
 11
-82.523975
 21
-24.792753
  0
LINE
  8
型材断面
  6
CONTINUOUS
 10
-134.69508
 20
-22.688857
 11
-82.523975
 21
-22.688857
  0
LINE
  8
型材断面
  6
CONTINUOUS
 10
-134.412238
 20
-22.406015
 11
-82.523975
 21
-22.406015
  0
LINE
  8
型材断面
  6
CONTINUOUS
 10
-135.402188
 20
-23.395965
 11
-82.523975
 21
-23.395965
  0
LINE
  8
型材断面
  6
DASHDOT
 10
-132.523975
 20
-20.517753
 11
-86.773975
 21
25.232248
  0
LINE
  8
型材断面
  6
CONTINUOUS
 10
-134.412238
 20
-22.406015
 11
-134.412238
 21
29.482248
  0
LINE
  8
型材断面
  6
CONTINUOUS
 10
-134.69508
 20
-22.688857
 11
-134.69508
 21
29.482248
  0
LINE
  8
型材断面
  6
CONTINUOUS
 10
-135.402188
 20
-23.395965
 11
-135.402188
 21
29.482248
  0
LINE
  8
型材断面
  6
CONTINUOUS
 10
-135.755743
 20
-23.74952
 11
-135.755743
 21
29.482248
  0
LINE
  8
型材断面
  6
CONTINUOUS
 10
-136.798975
 20
-24.792753
 11
-136.798975
 21
29.482248
  0
LINE
  8
型材断面
  6
CONTINUOUS
 10
-136.798975
 20
83.757248
 11
-129.648975
 21
76.607248
  0
LINE
  8
型材断面
  6
CONTINUOUS
 10
-131.905908
 20
81.2998
 11
-134.341528
 21
81.2998
  0
LINE
  8
型材断面
  6
CONTINUOUS
 10
-134.341528
 20
78.86418
 11
-134.341528
 21
81.2998
  0
LINE
  8
型材断面
  6
DASHDOT
 10
-132.523975
 20
79.482248
 11
-132.523975
 21
64.482248
  0
LINE
  8
型材断面
  6
CONTINUOUS
 10
-135.755743
 20
82.714015
 11
-82.523975
 21
82.714015
  0
LINE
  8
型材断面
  6
CONTINUOUS
 10
-136.798975
 20
83.757248
 11
-82.523975
 21
83.757248
  0
LINE
  8
型材断面
  6
CONTINUOUS
 10
-134.69508
 20
81.653353
 11
-82.523975
 21
81.653353
  0
LINE
  8
型材断面
  6
CONTINUOUS
 10
-134.412238
 20
81.37051
 11
-82.523975
 21
81.37051
  0
LINE
  8
型材断面
  6
CONTINUOUS
 10
-135.402188
 20
82.36046
 11
-82.523975
 21
82.36046
  0
LINE
  8
型材断面
  6
DASHDOT
 10
-132.523975
 20
79.482248
 11
-86.773975
 21
33.732248
  0
LINE
  8
型材断面
  6
CONTINUOUS
 10
-134.412238
 20
81.37051
 11
-134.412238
 21
29.482248
  0
LINE
  8
型材断面
  6
CONTINUOUS
 10
-134.69508
 20
81.653353
 11
-134.69508
 21
29.482248
  0
LINE
  8
型材断面
  6
CONTINUOUS
 10
-135.402188
 20
82.36046
 11
-135.402188
 21
29.482248
  0
LINE
  8
型材断面
  6
CONTINUOUS
 10
-135.755743
 20
82.714015
 11
-135.755743
 21
29.482248
  0
LINE
  8
型材断面
  6
CONTINUOUS
 10
-136.798975
 20
83.757248
 11
-136.798975
 21
29.482248
  0
LINE
  8
型材断面
  6
CONTINUOUS
 10
-28.248975
 20
83.757248
 11
-35.398975
 21
76.607248
  0
LINE
  8
型材断面
  6
CONTINUOUS
 10
-33.142043
 20
81.2998
 11
-30.706423
 21
81.2998
  0
LINE
  8
型材断面
  6
CONTINUOUS
 10
-30.706423
 20
78.86418
 11
-30.706423
 21
81.2998
  0
LINE
  8
型材断面
  6
DASHDOT
 10
-32.523975
 20
79.482248
 11
-32.523975
 21
64.482248
  0
LINE
  8
型材断面
  6
CONTINUOUS
 10
-29.292208
 20
82.714015
 11
-82.523975
 21
82.714015
  0
LINE
  8
型材断面
  6
CONTINUOUS
 10
-28.248975
 20
83.757248
 11
-82.523975
 21
83.757248
  0
LINE
  8
型材断面
  6
CONTINUOUS
 10
-30.35287
 20
81.653353
 11
-82.523975
 21
81.653353
  0
LINE
  8
型材断面
  6
CONTINUOUS
 10
-30.635713
 20
81.37051
 11
-82.523975
 21
81.37051
  0
LINE
  8
型材断面
  6
CONTINUOUS
 10
-29.645763
 20
82.36046
 11
-82.523975
 21
82.36046
  0
LINE
  8
型材断面
  6
DASHDOT
 10
-32.523975
 20
79.482248
 11
-78.273975
 21
33.732248
  0
LINE
  8
型材断面
  6
CONTINUOUS
 10
-30.635713
 20
81.37051
 11
-30.635713
 21
29.482248
  0
LINE
  8
型材断面
  6
CONTINUOUS
 10
-30.35287
 20
81.653353
 11
-30.35287
 21
29.482248
  0
LINE
  8
型材断面
  6
CONTINUOUS
 10
-29.645763
 20
82.36046
 11
-29.645763
 21
29.482248
  0
LINE
  8
型材断面
  6
CONTINUOUS
 10
-29.292208
 20
82.714015
 11
-29.292208
 21
29.482248
  0
LINE
  8
型材断面
  6
CONTINUOUS
 10
-28.248975
 20
83.757248
 11
-28.248975
 21
29.482248
  0
LINE
  8
型材断面
  6
CONTINUOUS
 10
-81.298975
 20
-22.335305
 11
-83.748975
 21
-22.335305
  0
LINE
  8
型材断面
  6
CONTINUOUS
 10
-81.298975
 20
81.2998
 11
-83.748975
 21
81.2998
  0
LINE
  8
型材断面
  6
CONTINUOUS
 10
-30.706423
 20
30.707248
 11
-30.706423
 21
28.257248
  0
LINE
  8
型材断面
  6
CONTINUOUS
 10
-134.341528
 20
30.707248
 11
-134.341528
 21
28.257248
  0
LINE
  8
型材断面
  6
CONTINUOUS
 62
    47
 10
-28.248975
 20
-123.706823
 11
-28.248975
 21
-124.2752
  0
LINE
  8
型材断面
  6
CONTINUOUS
 62
    47
 10
-28.923975
 20
-124.9752
 11
-28.248975
 21
-124.9752
  0
LINE
  8
型材断面
  6
CONTINUOUS
 62
    47
 10
-28.248975
 20
-124.9752
 11
-28.248975
 21
-124.2752
  0
LINE
  8
型材断面
  6
CONTINUOUS
 62
    47
 10
-29.573978
 20
-124.2752
 11
-28.248975
 21
-124.2752
  0
LINE
  8
型材断面
  6
CONTINUOUS
 62
    47
 10
-28.923975
 20
-124.9752
 11
-28.923975
 21
-125.4752
  0
LINE
  8
型材断面
  6
CONTINUOUS
 10
-28.998975
 20
-125.4752
 11
-28.923975
 21
-125.4752
  0
LINE
  8
型材断面
  6
CONTINUOUS
 62
    47
 10
-30.35287
 20
-121.602927
 11
-29.292208
 21
-122.66359
  0
LINE
  8
型材断面
  6
CONTINUOUS
 10
-30.8832
 20
-121.072598
 11
-33.601642
 21
-121.072598
  0
LINE
  8
型材断面
  6
CONTINUOUS
 62
    47
 10
-28.248975
 20
-123.706823
 11
-82.523975
 21
-69.431822
  0
LINE
  8
型材断面
  6
CONTINUOUS
 10
-28.923975
 20
-124.9752
 11
-82.523975
 21
-124.9752
  0
LINE
  8
型材断面
  6
CONTINUOUS
 10
-28.248975
 20
-124.2752
 11
-82.523975
 21
-124.2752
  0
LINE
  8
型材断面
  6
CONTINUOUS
 10
-28.923975
 20
-125.4752
 11
-82.523975
 21
-125.4752
  0
LINE
  8
型材断面
  6
CONTINUOUS
 10
-28.248975
 20
-123.706823
 11
-82.523975
 21
-123.706823
  0
LINE
  8
型材断面
  6
CONTINUOUS
 10
-29.292208
 20
-122.66359
 11
-82.523975
 21
-122.66359
  0
LINE
  8
型材断面
  6
CONTINUOUS
 10
-30.35287
 20
-121.602927
 11
-82.523975
 21
-121.602927
  0
LINE
  8
型材断面
  6
CONTINUOUS
 10
-29.645763
 20
-122.310035
 11
-82.523975
 21
-122.310035
  0
LINE
  8
型材断面
  6
CONTINUOUS
 62
    47
 10
-136.798975
 20
-123.706823
 11
-136.798975
 21
-124.2752
  0
LINE
  8
型材断面
  6
CONTINUOUS
 62
    47
 10
-136.123975
 20
-124.9752
 11
-136.798975
 21
-124.9752
  0
LINE
  8
型材断面
  6
CONTINUOUS
 62
    47
 10
-136.798975
 20
-124.9752
 11
-136.798975
 21
-124.2752
  0
LINE
  8
型材断面
  6
CONTINUOUS
 62
    47
 10
-135.473973
 20
-124.2752
 11
-136.798975
 21
-124.2752
  0
LINE
  8
型材断面
  6
CONTINUOUS
 62
    47
 10
-136.123975
 20
-124.9752
 11
-136.123975
 21
-125.4752
  0
LINE
  8
型材断面
  6
CONTINUOUS
 10
-136.048975
 20
-125.4752
 11
-136.123975
 21
-125.4752
  0
LINE
  8
型材断面
  6
CONTINUOUS
 62
    47
 10
-134.69508
 20
-121.602927
 11
-135.755743
 21
-122.66359
  0
LINE
  8
型材断面
  6
CONTINUOUS
 10
-134.16475
 20
-121.072598
 11
-131.446307
 21
-121.072598
  0
LINE
  8
型材断面
  6
CONTINUOUS
 62
    47
 10
-136.798975
 20
-123.706823
 11
-82.523975
 21
-69.431822
  0
LINE
  8
型材断面
  6
CONTINUOUS
 10
-136.123975
 20
-124.9752
 11
-82.523975
 21
-124.9752
  0
LINE
  8
型材断面
  6
CONTINUOUS
 10
-136.798975
 20
-124.2752
 11
-82.523975
 21
-124.2752
  0
LINE
  8
型材断面
  6
CONTINUOUS
 10
-136.123975
 20
-125.4752
 11
-82.523975
 21
-125.4752
  0
LINE
  8
型材断面
  6
CONTINUOUS
 10
-136.798975
 20
-123.706823
 11
-82.523975
 21
-123.706823
  0
LINE
  8
型材断面
  6
CONTINUOUS
 10
-135.755743
 20
-122.66359
 11
-82.523975
 21
-122.66359
  0
LINE
  8
型材断面
  6
CONTINUOUS
 10
-134.69508
 20
-121.602927
 11
-82.523975
 21
-121.602927
  0
LINE
  8
型材断面
  6
CONTINUOUS
 10
-135.402188
 20
-122.310035
 11
-82.523975
 21
-122.310035
  0
LINE
  8
型材断面
  6
DASHDOT
 10
-32.523975
 20
79.482248
 11
-32.523975
 21
-132.4502
  0
LINE
  8
型材断面
  6
DASHDOT
 10
-82.523975
 20
79.482248
 11
-82.523975
 21
-132.4502
  0
LINE
  8
型材断面
  6
DASHDOT
 10
-132.523975
 20
79.482248
 11
-132.523975
 21
-132.4502
  0
LINE
  8
型材断面
  6
CONTINUOUS
 10
-82.523975
 20
-28.541627
 11
-84.76742
 21
-32.427387
  0
LINE
  8
型材断面
  6
CONTINUOUS
 10
-82.523975
 20
-28.541627
 11
-80.28053
 21
-32.427387
  0
LINE
  8
型材断面
  6
CONTINUOUS
 10
-80.28053
 20
-32.427387
 11
-84.76742
 21
-32.427387
  0
LINE
  8
型材断面
  6
CONTINUOUS
 10
-140.547853
 20
29.482248
 11
-144.433612
 21
27.238803
  0
LINE
  8
型材断面
  6
CONTINUOUS
 10
-140.547853
 20
29.482248
 11
-144.433612
 21
31.725692
  0
LINE
  8
型材断面
  6
CONTINUOUS
 10
-144.433612
 20
31.725692
 11
-144.433612
 21
27.238803
  0
LINE
  8
型材断面
  6
CONTINUOUS
 10
-82.523975
 20
87.506122
 11
-84.76742
 21
91.391883
  0
LINE
  8
型材断面
  6
CONTINUOUS
 10
-82.523975
 20
87.506122
 11
-80.28053
 21
91.391883
  0
LINE
  8
型材断面
  6
CONTINUOUS
 10
-80.28053
 20
91.391883
 11
-84.76742
 21
91.391883
  0
LINE
  8
型材断面
  6
CONTINUOUS
 10
-24.500097
 20
29.482248
 11
-20.614337
 21
27.238803
  0
LINE
  8
型材断面
  6
CONTINUOUS
 10
-24.500097
 20
29.482248
 11
-20.614337
 21
31.725692
  0
LINE
  8
型材断面
  6
CONTINUOUS
 10
-20.614337
 20
31.725692
 11
-20.614337
 21
27.238803
  0
LINE
  8
型材断面
  6
DOT
 10
-127.507737
 20
79.482248
 11
-127.507737
 21
-20.517753
  0
LINE
  8
型材断面
  6
DOT
 10
-129.507737
 20
79.482248
 11
-129.507737
 21
-20.517753
  0
LINE
  8
型材断面
  6
CONTINUOUS
 10
-83.748975
 20
-121.072598
 11
-81.298975
 21
-121.072598
  0
LINE
  8
型材断面
  6
CONTINUOUS
 10
-90.023975
 20
36.982248
 11
-90.023975
 21
21.982248
  0
LINE
  8
型材断面
  6
CONTINUOUS
 10
-90.023975
 20
21.982248
 11
-75.023975
 21
21.982248
  0
LINE
  8
型材断面
  6
CONTINUOUS
 10
-75.023975
 20
21.982248
 11
-75.023975
 21
36.982248
  0
LINE
  8
型材断面
  6
CONTINUOUS
 10
-90.023975
 20
36.982248
 11
-75.023975
 21
36.982248
  0
LINE
  8
型材断面
  6
CONTINUOUS
 10
-75.023975
 20
36.982248
 11
-90.023975
 21
21.982248
  0
LINE
  8
型材断面
  6
CONTINUOUS
 10
-90.023975
 20
36.982248
 11
-75.023975
 21
21.982248
  0
LINE
  8
型材断面
  6
CONTINUOUS
 10
-82.523975
 20
-69.325857
 11
-90.023975
 21
-76.825863
  0
LINE
  8
型材断面
  6
CONTINUOUS
 10
-90.023975
 20
-76.825863
 11
-89.970993
 21
-76.878845
  0
LINE
  8
型材断面
  6
CONTINUOUS
 10
-90.023978
 20
-76.825863
 11
-85.773978
 21
-76.825863
  0
LINE
  8
型材断面
  6
CONTINUOUS
 10
-89.970993
 20
-76.878845
 11
-85.773978
 21
-76.878845
  0
LINE
  8
型材断面
  6
CONTINUOUS
 10
-89.970993
 20
-76.878845
 11
-90.023978
 21
-76.825863
  0
LINE
  8
型材断面
  6
CONTINUOUS
 10
-90.023975
 20
-76.825863
 11
-82.523975
 21
-76.825863
  0
LINE
  8
型材断面
  6
CONTINUOUS
 10
-89.970993
 20
-76.878845
 11
-82.523975
 21
-76.878845
  0
LINE
  8
型材断面
  6
CONTINUOUS
 10
-75.023975
 20
-76.825863
 11
-75.076958
 21
-76.878845
  0
LINE
  8
型材断面
  6
CONTINUOUS
 10
-75.023973
 20
-76.825863
 11
-79.273973
 21
-76.825863
  0
LINE
  8
型材断面
  6
CONTINUOUS
 10
-75.076958
 20
-76.878845
 11
-79.273973
 21
-76.878845
  0
LINE
  8
型材断面
  6
CONTINUOUS
 10
-75.076958
 20
-76.878845
 11
-75.023973
 21
-76.825863
  0
LINE
  8
型材断面
  6
CONTINUOUS
 10
-75.023975
 20
-76.825863
 11
-82.523975
 21
-76.825863
  0
LINE
  8
型材断面
  6
CONTINUOUS
 10
-75.076958
 20
-76.878845
 11
-82.523975
 21
-76.878845
  0
LINE
  8
型材断面
  6
CONTINUOUS
 10
-82.523975
 20
-69.325857
 11
-75.02397
 21
-76.825863
  0
LINE
  8
型材断面
  6
CONTINUOUS
 10
-131.72915
 20
-121.072598
 11
-87.482415
 21
-76.825863
  0
LINE
  8
型材断面
  6
CONTINUOUS
 10
-131.446307
 20
-121.072598
 11
-87.19956
 21
-76.825863
  0
LINE
  8
型材断面
  6
CONTINUOUS
 10
-82.773975
 20
-121.072598
 11
-82.773975
 21
-76.825863
  0
LINE
  8
型材断面
  6
CONTINUOUS
 10
-83.748975
 20
-121.072598
 11
-83.748975
 21
-76.825863
  0
LINE
  8
型材断面
  6
CONTINUOUS
 10
-82.273975
 20
-121.072598
 11
-82.273975
 21
-76.825863
  0
LINE
  8
型材断面
  6
CONTINUOUS
 10
-81.298975
 20
-121.072598
 11
-81.298975
 21
-76.825863
  0
LINE
  8
型材断面
  6
CONTINUOUS
 10
-33.3188
 20
-121.072598
 11
-77.565535
 21
-76.825863
  0
LINE
  8
型材断面
  6
CONTINUOUS
 10
-33.601642
 20
-121.072598
 11
-77.84839
 21
-76.825863
  0
LINE
  8
型材断面
  6
CONTINUOUS
 10
-133.987975
 20
-22.335305
 11
-89.67041
 21
21.982248
  0
LINE
  8
型材断面
  6
CONTINUOUS
 10
-131.905908
 20
-22.335305
 11
-87.588355
 21
21.982248
  0
LINE
  8
型材断面
  6
CONTINUOUS
 10
-83.748975
 20
-22.335305
 11
-83.748975
 21
21.982248
  0
LINE
  8
型材断面
  6
CONTINUOUS
 10
-82.773975
 20
-22.335305
 11
-82.773975
 21
21.982248
  0
LINE
  8
型材断面
  6
CONTINUOUS
 10
-82.273975
 20
-22.335305
 11
-82.273975
 21
21.982248
  0
LINE
  8
型材断面
  6
CONTINUOUS
 10
-81.298975
 20
-22.335305
 11
-81.298975
 21
21.982248
  0
LINE
  8
型材断面
  6
CONTINUOUS
 10
-33.142043
 20
-22.335305
 11
-77.459595
 21
21.982248
  0
LINE
  8
型材断面
  6
CONTINUOUS
 10
-31.059975
 20
-22.335305
 11
-75.37754
 21
21.982248
  0
LINE
  8
型材断面
  6
CONTINUOUS
 10
-30.706423
 20
-21.981753
 11
-75.023975
 21
22.3358
  0
LINE
  8
型材断面
  6
CONTINUOUS
 10
-30.706423
 20
-19.899685
 11
-75.023975
 21
24.417867
  0
LINE
  8
型材断面
  6
CONTINUOUS
 10
-30.706423
 20
28.257248
 11
-75.023975
 21
28.257248
  0
LINE
  8
型材断面
  6
CONTINUOUS
 10
-30.706423
 20
30.707248
 11
-75.023975
 21
30.707248
  0
LINE
  8
型材断面
  6
CONTINUOUS
 10
-30.706423
 20
29.732248
 11
-75.023975
 21
29.732248
  0
LINE
  8
型材断面
  6
CONTINUOUS
 10
-30.706423
 20
29.232248
 11
-75.023975
 21
29.232248
  0
LINE
  8
型材断面
  6
CONTINUOUS
 10
-30.706423
 20
78.86418
 11
-75.023975
 21
34.546628
  0
LINE
  8
型材断面
  6
CONTINUOUS
 10
-30.706423
 20
80.946248
 11
-75.023975
 21
36.628695
  0
LINE
  8
型材断面
  6
CONTINUOUS
 10
-31.059975
 20
81.2998
 11
-75.37754
 21
36.982248
  0
LINE
  8
型材断面
  6
CONTINUOUS
 10
-33.142043
 20
81.2998
 11
-77.459595
 21
36.982248
  0
LINE
  8
型材断面
  6
CONTINUOUS
 10
-81.298975
 20
81.2998
 11
-81.298975
 21
36.982248
  0
LINE
  8
型材断面
  6
CONTINUOUS
 10
-82.273975
 20
81.2998
 11
-82.273975
 21
36.982248
  0
LINE
  8
型材断面
  6
CONTINUOUS
 10
-82.773975
 20
81.2998
 11
-82.773975
 21
36.982248
  0
LINE
  8
型材断面
  6
CONTINUOUS
 10
-83.748975
 20
81.2998
 11
-83.748975
 21
36.982248
  0
LINE
  8
型材断面
  6
CONTINUOUS
 10
-131.905908
 20
81.2998
 11
-87.588355
 21
36.982248
  0
LINE
  8
型材断面
  6
CONTINUOUS
 10
-133.987975
 20
81.2998
 11
-89.67041
 21
36.982248
  0
LINE
  8
型材断面
  6
CONTINUOUS
 10
-134.341528
 20
80.946248
 11
-90.023975
 21
36.628695
  0
LINE
  8
型材断面
  6
CONTINUOUS
 10
-134.341528
 20
78.86418
 11
-90.023975
 21
34.546628
  0
LINE
  8
型材断面
  6
CONTINUOUS
 10
-134.341528
 20
30.707248
 11
-90.023975
 21
30.707248
  0
LINE
  8
型材断面
  6
CONTINUOUS
 10
-134.341528
 20
29.732248
 11
-90.023975
 21
29.732248
  0
LINE
  8
型材断面
  6
CONTINUOUS
 10
-134.341528
 20
29.232248
 11
-90.023975
 21
29.232248
  0
LINE
  8
型材断面
  6
CONTINUOUS
 10
-134.341528
 20
28.257248
 11
-90.023975
 21
28.257248
  0
LINE
  8
型材断面
  6
CONTINUOUS
 10
-134.341528
 20
-19.899685
 11
-90.023975
 21
24.417867
  0
LINE
  8
型材断面
  6
CONTINUOUS
 10
-134.341528
 20
-21.981753
 11
-90.023975
 21
22.3358
  0
LINE
  8
型材断面
  6
CONTINUOUS
 10
101.69245
 20
-25.229795
 11
125.624072
 21
-25.229795
  0
LINE
  8
ガラス
  6
CONTINUOUS
 10
-91.704115
 20
60.843195
 11
-95.57675
 21
56.97056
  0
LINE
  8
ガラス
  6
CONTINUOUS
 10
-93.302473
 20
59.962873
 11
-94.696428
 21
58.568917
  0
LINE
  8
ガラス
  6
CONTINUOUS
 10
-69.450512
 20
60.843195
 11
-73.323147
 21
56.97056
  0
LINE
  8
ガラス
  6
CONTINUOUS
 10
-71.04887
 20
59.962873
 11
-72.442825
 21
58.568917
  0
LINE
  8
ガラス
  6
CONTINUOUS
 10
-91.704115
 20
0.43301
 11
-95.57675
 21
-3.439625
  0
LINE
  8
ガラス
  6
CONTINUOUS
 10
-93.302473
 20
-0.447313
 11
-94.696428
 21
-1.841267
  0
LINE
  8
ガラス
  6
CONTINUOUS
 10
-69.450512
 20
0.43301
 11
-73.323147
 21
-3.439625
  0
LINE
  8
ガラス
  6
CONTINUOUS
 10
-71.04887
 20
-0.447313
 11
-72.442825
 21
-1.841267
  0
LINE
  8
ガラス
  6
CONTINUOUS
 10
-49.417715
 20
18.986017
 11
-53.29035
 21
15.113383
  0
LINE
  8
ガラス
  6
CONTINUOUS
 10
-51.016072
 20
18.105695
 11
-52.410027
 21
16.71174
  0
LINE
  8
ガラス
  6
CONTINUOUS
 10
-49.417715
 20
43.07847
 11
-53.29035
 21
39.205835
  0
LINE
  8
ガラス
  6
CONTINUOUS
 10
-51.016072
 20
42.198148
 11
-52.410027
 21
40.804192
  0
LINE
  8
ガラス
  6
CONTINUOUS
 10
-114.65988
 20
18.986017
 11
-118.532515
 21
15.113383
  0
LINE
  8
ガラス
  6
CONTINUOUS
 10
-116.258237
 20
18.105695
 11
-117.652193
 21
16.71174
  0
LINE
  8
ガラス
  6
CONTINUOUS
 10
-114.65988
 20
43.07847
 11
-118.532515
 21
39.205835
  0
LINE
  8
ガラス
  6
CONTINUOUS
 10
-116.258237
 20
42.198148
 11
-117.652193
 21
40.804192
  0
LINE
  8
ガラス
  6
CONTINUOUS
 10
-70.330835
 20
59.244837
 11
-71.72479
 21
57.850883
  0
LINE
  8
ガラス
  6
CONTINUOUS
 10
-92.584437
 20
59.244837
 11
-93.978392
 21
57.850883
  0
LINE
  8
ガラス
  6
CONTINUOUS
 10
-115.540203
 20
41.480112
 11
-116.934158
 21
40.086158
  0
LINE
  8
ガラス
  6
CONTINUOUS
 10
-115.540203
 20
17.38766
 11
-116.934158
 21
15.993705
  0
LINE
  8
ガラス
  6
CONTINUOUS
 10
-92.584437
 20
-1.165348
 11
-93.978392
 21
-2.559303
  0
LINE
  8
ガラス
  6
CONTINUOUS
 10
-70.330835
 20
-1.165348
 11
-71.72479
 21
-2.559303
  0
LINE
  8
ガラス
  6
CONTINUOUS
 10
-50.298038
 20
17.38766
 11
-51.691993
 21
15.993705
  0
LINE
  8
ガラス
  6
CONTINUOUS
 10
-50.298038
 20
41.480112
 11
-51.691993
 21
40.086158
  0
LINE
  8
ガラス
  6
CONTINUOUS
 10
-92.718815
 20
-101.31933
 11
-96.59145
 21
-105.191965
  0
LINE
  8
ガラス
  6
CONTINUOUS
 10
-93.599137
 20
-102.917688
 11
-94.993092
 21
-104.311643
  0
LINE
  8
ガラス
  6
CONTINUOUS
 10
-94.317173
 20
-102.199652
 11
-95.711128
 21
-103.593607
  0
LINE
  8
ガラス
  6
CONTINUOUS
 10
-67.644205
 20
-101.31933
 11
-71.51684
 21
-105.191965
  0
LINE
  8
ガラス
  6
CONTINUOUS
 10
-68.524528
 20
-102.917688
 11
-69.918483
 21
-104.311643
  0
LINE
  8
ガラス
  6
CONTINUOUS
 10
-69.242562
 20
-102.199652
 11
-70.636517
 21
-103.593607
  0
TEXT
  7
TextStyle03
  8
文字
  6
CONTINUOUS
 10
-3.3
 20
2.475
  1
は排水穴位置を示す
 40
3.0
 72
     5
 11
26.7
 21
2.475
  0
TEXT
  7
TextStyle03
  8
文字
  6
CONTINUOUS
 10
77.0
 20
91.5
  1
ＮＳコード：ＮＳ４ＣＫＳ
 40
5.0
 72
     5
 11
143.875
 21
91.5
  0
TEXT
  7
TextStyle03
  8
文字
  6
CONTINUOUS
 10
-8.9
 20
-5.05
  1
アンカー数量　１２ヶ所
 40
3.0
 72
     5
 11
27.85
 21
-5.05
  0
TEXT
  7
TextStyle03
  8
文字
  6
CONTINUOUS
 10
-165.5
 20
-30.225
  1
アンカーピッチ
 40
3.0
 50
90.0
 72
     5
 11
-165.5
 21
-6.975
  0
TEXT
  7
TextStyle03
  8
文字
  6
CONTINUOUS
 10
-144.775
 20
111.275
  1
アンカーピッチ
 40
3.0
 72
     5
 11
-121.525
 21
111.275
  0
TEXT
  7
TextStyle03
  8
文字
  6
CONTINUOUS
 10
105.275
 20
-24.025
  1
ガラス寸法
 40
3.0
 72
     5
 11
121.775
 21
-24.025
  0
TEXT
  7
TextStyle03
  8
文字
  6
CONTINUOUS
 10
128.775
 20
-75.1
  1
本図×４枚
 40
3.0
 72
     5
 11
145.275
 21
-75.1
  0
TEXT
  7
TextStyle03
  8
文字
  6
CONTINUOUS
 10
128.775
 20
-78.475
  1
逆図×４枚
 40
3.0
 72
     5
 11
145.275
 21
-78.475
  0
TEXT
  7
TextStyle03
  8
文字
  6
CONTINUOUS
 10
76.6
 20
118.825
  1
シリーズ：ＳＴＦ４Ｋ
 40
5.0
 72
     5
 11
132.225
 21
118.825
  0
TEXT
  7
TextStyle03
  8
文字
  6
CONTINUOUS
 10
76.6
 20
113.2
  1
　　　　　四角錘（固定）2000×2000タイプ
 40
5.0
 72
     5
 11
188.475
 21
113.2
  0
TEXT
  7
TextStyle03
  8
文字
  6
CONTINUOUS
 10
76.6
 20
107.575
  1
　　　　　シングルガラス仕様
 40
5.0
 72
     5
 11
154.725
 21
107.575
  0
TEXT
  7
TextStyle03
  8
文字
  6
CONTINUOUS
 10
76.6
 20
101.95
  1
図面名　：外観姿図
 40
5.0
 72
     5
 11
126.6
 21
101.95
  0
TEXT
  7
TextStyle03
  8
文字
  6
CONTINUOUS
 10
76.6
 20
96.325
  1
　　　　　　
 40
5.0
 72
     5
 11
109.725
 21
96.325
  0
INSERT
  2
*DIM_0002
  8
寸法
  6
CONTINUOUS
 10
0.0
 20
0.0
  0
INSERT
  2
*DIM_0003
  8
寸法
  6
CONTINUOUS
 10
0.0
 20
0.0
  0
INSERT
  2
*DIM_0004
  8
寸法
  6
CONTINUOUS
 10
0.0
 20
0.0
  0
INSERT
  2
*DIM_0005
  8
寸法
  6
CONTINUOUS
 10
0.0
 20
0.0
  0
INSERT
  2
*DIM_0006
  8
寸法
  6
CONTINUOUS
 10
0.0
 20
0.0
  0
INSERT
  2
*DIM_0007
  8
寸法
  6
CONTINUOUS
 10
0.0
 20
0.0
  0
INSERT
  2
*DIM_0008
  8
寸法
  6
CONTINUOUS
 10
0.0
 20
0.0
  0
INSERT
  2
*DIM_0009
  8
寸法
  6
CONTINUOUS
 10
0.0
 20
0.0
  0
INSERT
  2
*DIM_0010
  8
寸法
  6
CONTINUOUS
 10
0.0
 20
0.0
  0
INSERT
  2
*DIM_0011
  8
寸法
  6
CONTINUOUS
 10
0.0
 20
0.0
  0
INSERT
  2
*DIM_0012
  8
寸法
  6
CONTINUOUS
 10
0.0
 20
0.0
  0
INSERT
  2
*DIM_0013
  8
寸法
  6
CONTINUOUS
 10
0.0
 20
0.0
  0
INSERT
  2
*DIM_0014
  8
寸法
  6
CONTINUOUS
 10
0.0
 20
0.0
  0
LINE
  8
曲げ物
  6
CONTINUOUS
 10
150.343093
 20
-82.344413
 11
100.548095
 21
-82.344413
  0
LINE
  8
曲げ物
  6
CONTINUOUS
 10
100.548095
 20
-82.344413
 11
150.343093
 21
-11.923955
  0
LINE
  8
曲げ物
  6
CONTINUOUS
 10
150.343093
 20
-82.344413
 11
150.343093
 21
-11.923955
  0
ENDSEC
  0
EOF
