  0
SECTION
  2
HEADER
  9
$EXTMIN
 10
-210.0
 20
-148.5
  9
$EXTMAX
 10
210.0
 20
148.5
  9
$PDMODE
 70
    32
  9
$PDSIZE
 40
1.5
  9
$LTSCALE
 40
10.0
  0
ENDSEC
  0
SECTION
  2
TABLES
  0
TABLE
  2
LTYPE
 70
    15
  0
LTYPE
  2
CONTINUOUS
 70
    64
  3
実線
 72
    65
 73
     0
 40
0.0
  0
LTYPE
  2
DASHED
 70
    64
  3
破線A
 72
    65
 73
     2
 40
0.6
 49
0.4
 49
-0.2
  0
LTYPE
  2
DASHEDX2
 70
    64
  3
破線B
 72
    65
 73
     2
 40
1.3
 49
0.9
 49
-0.4
  0
LTYPE
  2
DASHDOT
 70
    64
  3
１点鎖線A
 72
    65
 73
     4
 40
0.5375
 49
0.375
 49
-0.05
 49
0.0625
 49
-0.05
  0
LTYPE
  2
DASHDOTX2
 70
    64
  3
１点鎖線B
 72
    65
 73
     4
 40
1.075
 49
0.75
 49
-0.1
 49
0.125
 49
-0.1
  0
LTYPE
  2
DIVIDE2
 70
    64
  3
２点鎖線A
 72
    65
 73
     6
 40
0.5125
 49
0.3
 49
-0.0375
 49
0.05
 49
-0.0375
 49
0.05
 49
-0.0375
  0
LTYPE
  2
DIVIDE
 70
    64
  3
２点鎖線B
 72
    65
 73
     6
 40
1.05
 49
0.55
 49
-0.1
 49
0.1
 49
-0.1
 49
0.1
 49
-0.1
  0
LTYPE
  2
DOT
 70
    64
  3
点線A
 72
    65
 73
     2
 40
0.1125
 49
0.0625
 49
-0.05
  0
LTYPE
  2
DOTX2
 70
    64
  3
点線B
 72
    65
 73
     2
 40
0.275
 49
0.15
 49
-0.125
  0
LTYPE
  2
CONTINUOUS
 70
    64
  3
実線
 72
    65
 73
     0
 40
0.0
  0
LTYPE
  2
CONTINUOUS
 70
    64
  3
実線
 72
    65
 73
     0
 40
0.0
  0
LTYPE
  2
CONTINUOUS
 70
    64
  3
実線
 72
    65
 73
     0
 40
0.0
  0
LTYPE
  2
CONTINUOUS
 70
    64
  3
実線
 72
    65
 73
     0
 40
0.0
  0
LTYPE
  2
CONTINUOUS
 70
    64
  3
実線
 72
    65
 73
     0
 40
0.0
  0
LTYPE
  2
CONTINUOUS
 70
    64
  3
実線
 72
    65
 73
     0
 40
0.0
  0
ENDTAB
  0
TABLE
  2
LAYER
 70
    34
  0
LAYER
  2
通り芯
 70
     0
 62
    15
  6
CONTINUOUS
  0
LAYER
  2
補助線
 70
     0
 62
    16
  6
DOT
  0
LAYER
  2
躯体
 70
     0
 62
    31
  6
CONTINUOUS
  0
LAYER
  2
型材
 70
     0
 62
    32
  6
CONTINUOUS
  0
LAYER
  2
型材断面
 70
     0
 62
    47
  6
CONTINUOUS
  0
LAYER
  2
ガラス
 70
     0
 62
    48
  6
CONTINUOUS
  0
LAYER
  2
ゴム等
 70
     0
 62
    63
  6
CONTINUOUS
  0
LAYER
  2
ボルト／ビス
 70
     0
 62
    64
  6
CONTINUOUS
  0
LAYER
  2
文字
 70
     0
 62
    79
  6
CONTINUOUS
  0
LAYER
  2
寸法
 70
     0
 62
    80
  6
CONTINUOUS
  0
LAYER
  2
ﾊｯﾁﾝｸﾞ
 70
     0
 62
    95
  6
CONTINUOUS
  0
LAYER
  2
別途部材
 70
     0
 62
    96
  6
CONTINUOUS
  0
LAYER
  2
曲げ物
 70
     0
 62
   111
  6
CONTINUOUS
  0
LAYER
  2
鉄骨等
 70
     0
 62
   112
  6
CONTINUOUS
  0
LAYER
  2
St
 70
     0
 62
   127
  6
CONTINUOUS
  0
LAYER
  2
その他部品等
 70
     0
 62
   128
  6
CONTINUOUS
  0
LAYER
  2
ｶﾞｽｹｯﾄ
 70
     0
 62
   143
  6
CONTINUOUS
  0
LAYER
  2
ｽｹｯﾁ
 70
     0
 62
    14
  6
CONTINUOUS
  0
LAYER
  2
0
 70
     0
 62
    17
  6
CONTINUOUS
  0
LAYER
  2
1
 70
     0
 62
    30
  6
CONTINUOUS
  0
LAYER
  2
4
 70
     0
 62
    33
  6
CONTINUOUS
  0
LAYER
  2
ﾚｲﾔ3
 70
     0
 62
    46
  6
CONTINUOUS
  0
LAYER
  2
外形線
 70
     0
 62
    49
  6
CONTINUOUS
  0
LAYER
  2
部品
 70
     0
 62
    14
  6
CONTINUOUS
  0
LAYER
  2
サッシ芯
 70
     0
 62
    17
  6
DASHDOTX2
  0
LAYER
  2
寸法線
 70
     0
 62
    62
  6
CONTINUOUS
  0
LAYER
  2
姿図外形線
 70
     0
 62
    65
  6
CONTINUOUS
  0
LAYER
  2
姿補助線
 70
     0
 62
    30
  6
CONTINUOUS
  0
LAYER
  2
透視線
 70
     0
 62
    78
  6
DOT
  0
LAYER
  2
用紙
 70
     0
 62
    81
  6
CONTINUOUS
  0
LAYER
  2
実線図枠
 70
     0
 62
    94
  6
CONTINUOUS
  0
LAYER
  2
補助図枠
 70
     0
 62
    97
  6
CONTINUOUS
  0
LAYER
  2
建具記号
 70
     0
 62
   110
  6
CONTINUOUS
  0
LAYER
  2
補助文字
 70
     0
 62
   113
  6
CONTINUOUS
  0
ENDTAB
  0
TABLE
  2
STYLE
 70
    10
  0
STYLE
  2
STANDARD
 70
     0
 40
1.0
 41
1.0
 42
1.0
 50
0.0
 71
     0
  3
TXT
  4
BIGFONT
  0
STYLE
  2
TATE
 70
     4
 40
1.0
 41
1.0
 42
1.0
 50
0.0
 71
     0
  3
TXT
  4
BIGFONT
  0
STYLE
  2
TextStyle03
 70
     0
 40
1.0
 41
1.0
 42
1.0
 50
0.0
 71
     0
  3
MONOTXT
  4
BIGFONT
  0
STYLE
  2
TextStyle04
 70
     0
 40
1.0
 41
1.0
 42
1.0
 50
0.0
 71
     0
  3
MONOTXT
  4
BIGFONT
  0
STYLE
  2
TextStyle05
 70
     0
 40
1.0
 41
1.0
 42
1.0
 50
0.0
 71
     0
  3
MONOTXT
  4
BIGFONT
  0
STYLE
  2
TextStyle06
 70
     0
 40
1.0
 41
1.0
 42
1.0
 50
0.0
 71
     0
  3
MONOTXT
  4
BIGFONT
  0
STYLE
  2
TextStyle07
 70
     0
 40
1.0
 41
1.0
 42
1.0
 50
0.0
 71
     0
  3
MONOTXT
  4
BIGFONT
  0
STYLE
  2
TextStyle08
 70
     0
 40
1.0
 41
1.0
 42
1.0
 50
0.0
 71
     0
  3
MONOTXT
  4
BIGFONT
  0
STYLE
  2
TextStyle09
 70
     0
 40
1.0
 41
1.0
 42
1.0
 50
0.0
 71
     0
  3
MONOTXT
  4
BIGFONT
  0
STYLE
  2
TextStyle10
 70
     0
 40
1.0
 41
1.0
 42
1.0
 50
0.0
 71
     0
  3
MONOTXT
  4
BIGFONT
  0
ENDTAB
  0
ENDSEC
  0
SECTION
  2
BLOCKS
  0
BLOCK
  2
*GRP_0001
 70
    65
 10
0.0
 20
0.0
  0
LINE
  8
型材断面
  6
CONTINUOUS
 10
195.0
 20
133.5
 11
195.0
 21
-133.5
  0
LINE
  8
型材断面
  6
CONTINUOUS
 10
195.0
 20
-133.5
 11
-185.0
 21
-133.5
  0
LINE
  8
型材断面
  6
CONTINUOUS
 10
-185.0
 20
-133.5
 11
-185.0
 21
133.5
  0
LINE
  8
型材断面
  6
CONTINUOUS
 10
195.0
 20
133.5
 11
-185.0
 21
133.5
  0
LINE
  8
型材断面
  6
CONTINUOUS
 10
145.0
 20
-133.5
 11
145.0
 21
-118.5
  0
LINE
  8
型材断面
  6
CONTINUOUS
 10
195.0
 20
-118.5
 11
145.0
 21
-118.5
  0
ENDBLK
  0
BLOCK
  2
*DIM_0002
 70
    65
 10
0.0
 20
0.0
  0
LINE
  8
寸法
  6
BYBLOCK
 62
     0
 10
-66.65034
 20
-25.91953
 11
-66.65034
 21
-18.25821
  0
LINE
  8
寸法
  6
BYBLOCK
 62
     0
 10
-58.150342
 20
-25.91953
 11
-58.150342
 21
-18.25821
  0
LINE
  8
寸法
  6
BYBLOCK
 62
     0
 10
-66.65034
 20
-18.25821
 11
-58.150342
 21
-18.25821
  0
POINT
  8
寸法
 62
     0
 10
-66.65034
 20
-18.25821
  0
POINT
  8
寸法
 62
     0
 10
-58.150342
 20
-18.25821
  0
TEXT
  7
TextStyle03
  8
寸法
  6
CONTINUOUS
 62
     0
 10
-64.8625
 20
-17.9
  1
170
 40
3.0
 72
     5
 11
-59.9875
 21
-17.9
  0
ENDBLK
  0
BLOCK
  2
*DIM_0003
 70
    65
 10
0.0
 20
0.0
  0
LINE
  8
寸法
  6
BYBLOCK
 62
     0
 10
-51.659207
 20
-22.66953
 11
-51.049258
 21
-22.66953
  0
LINE
  8
寸法
  6
BYBLOCK
 62
     0
 10
-57.150342
 20
-26.91953
 11
-51.049258
 21
-26.91953
  0
LINE
  8
寸法
  6
BYBLOCK
 62
     0
 10
-51.049258
 20
-22.66953
 11
-51.049258
 21
-26.91953
  0
POINT
  8
寸法
 62
     0
 10
-51.049258
 20
-22.66953
  0
POINT
  8
寸法
 62
     0
 10
-51.049258
 20
-26.91953
  0
TEXT
  7
TextStyle03
  8
寸法
  6
CONTINUOUS
 62
     0
 10
-51.425
 20
-26.39375
  1
85
 40
3.0
 50
90.0
 72
     5
 11
-51.425
 21
-23.20625
  0
ENDBLK
  0
BLOCK
  2
*DIM_0004
 70
    65
 10
0.0
 20
0.0
  0
LINE
  8
寸法
  6
BYBLOCK
 62
     0
 10
-61.400342
 20
-22.66953
 11
-8.229482
 21
-22.66953
  0
LINE
  8
寸法
  6
BYBLOCK
 62
     0
 10
-8.229482
 20
-59.550495
 11
-8.229482
 21
-22.66953
  0
POINT
  8
寸法
 62
     0
 10
-8.229482
 20
-59.550495
  0
POINT
  8
寸法
 62
     0
 10
-8.229482
 20
-22.66953
  0
TEXT
  7
TextStyle03
  8
寸法
  6
CONTINUOUS
 62
     0
 10
-8.625
 20
-45.25
  1
737.6
 40
3.0
 50
90.0
 72
     5
 11
-8.625
 21
-37.0
  0
ENDBLK
  0
BLOCK
  2
*DIM_0005
 70
    65
 10
0.0
 20
0.0
  0
LINE
  8
寸法
  6
BYBLOCK
 62
     0
 10
-94.900342
 20
-6.542915
 11
-94.900342
 21
-5.710077
  0
LINE
  8
寸法
  6
BYBLOCK
 62
     0
 10
-29.900342
 20
-6.542915
 11
-29.900342
 21
-5.710077
  0
LINE
  8
寸法
  6
BYBLOCK
 62
     0
 10
-94.900342
 20
-5.710077
 11
-29.900342
 21
-5.710077
  0
POINT
  8
寸法
 62
     0
 10
-94.900342
 20
-5.710077
  0
POINT
  8
寸法
 62
     0
 10
-29.900342
 20
-5.710077
  0
TEXT
  7
TextStyle03
  8
寸法
  6
CONTINUOUS
 62
     0
 10
-74.14375
 20
-5.35
  1
呼称寸法　1300
 40
3.0
 72
     5
 11
-50.70625
 21
-5.35
  0
ENDBLK
  0
BLOCK
  2
*DIM_0006
 70
    65
 10
0.0
 20
0.0
  0
LINE
  8
寸法
  6
BYBLOCK
 62
     0
 10
-25.625342
 20
-58.550495
 11
-25.625342
 21
-5.710077
  0
LINE
  8
寸法
  6
BYBLOCK
 62
     0
 10
-29.900342
 20
-5.710077
 11
-25.625342
 21
-5.710077
  0
POINT
  8
寸法
 62
     0
 10
-25.625342
 20
-5.710077
  0
TEXT
  7
TextStyle03
  8
寸法
  6
CONTINUOUS
 62
     0
 10
-24.30625
 20
-5.35
  1
85.5
 40
3.0
 72
     5
 11
-17.74375
 21
-5.35
  0
ENDBLK
  0
BLOCK
  2
*DIM_0007
 70
    65
 10
0.0
 20
0.0
  0
LINE
  8
寸法
  6
BYBLOCK
 62
     0
 10
-99.175342
 20
-58.550495
 11
-99.175342
 21
-5.710077
  0
LINE
  8
寸法
  6
BYBLOCK
 62
     0
 10
-94.900342
 20
-5.710077
 11
-99.175342
 21
-5.710077
  0
POINT
  8
寸法
 62
     0
 10
-94.900342
 20
-5.710077
  0
POINT
  8
寸法
 62
     0
 10
-99.175342
 20
-5.710077
  0
TEXT
  7
TextStyle03
  8
寸法
  6
CONTINUOUS
 62
     0
 10
-107.08125
 20
-5.35
  1
85.5
 40
3.0
 72
     5
 11
-100.51875
 21
-5.35
  0
ENDBLK
  0
BLOCK
  2
*DIM_0008
 70
    65
 10
0.0
 20
0.0
  0
LINE
  8
寸法
  6
BYBLOCK
 62
     0
 10
-24.625342
 20
-59.550495
 11
-8.229482
 21
-59.550495
  0
LINE
  8
寸法
  6
BYBLOCK
 62
     0
 10
-24.625342
 20
-61.59669
 11
-8.229482
 21
-61.59669
  0
LINE
  8
寸法
  6
BYBLOCK
 62
     0
 10
-8.229482
 20
-59.550495
 11
-8.229482
 21
-61.59669
  0
POINT
  8
寸法
 62
     0
 10
-8.229482
 20
-59.550495
  0
POINT
  8
寸法
 62
     0
 10
-8.229482
 20
-61.59669
  0
TEXT
  7
TextStyle03
  8
寸法
  6
CONTINUOUS
 62
     0
 10
-5.25
 20
-63.85625
  1
40.9
 40
3.0
 50
90.0
 72
     5
 11
-5.25
 21
-57.29375
  0
ENDBLK
  0
BLOCK
  2
*DIM_0009
 70
    65
 10
0.0
 20
0.0
  0
LINE
  8
寸法
  6
BYBLOCK
 62
     0
 10
-79.900342
 20
111.32142
 11
-79.900342
 21
121.676958
  0
LINE
  8
寸法
  6
BYBLOCK
 62
     0
 10
-44.900342
 20
111.32142
 11
-44.900342
 21
121.676958
  0
LINE
  8
寸法
  6
BYBLOCK
 62
     0
 10
-79.900342
 20
121.676958
 11
-44.900342
 21
121.676958
  0
POINT
  8
寸法
 62
     0
 10
-79.900342
 20
121.676958
  0
POINT
  8
寸法
 62
     0
 10
-44.900342
 20
121.676958
  0
TEXT
  7
TextStyle03
  8
寸法
  6
CONTINUOUS
 62
     0
 10
-64.8625
 20
122.025
  1
700
 40
3.0
 72
     5
 11
-59.9875
 21
122.025
  0
ENDBLK
  0
BLOCK
  2
*DIM_0010
 70
    65
 10
0.0
 20
0.0
  0
LINE
  8
寸法
  6
BYBLOCK
 62
     0
 10
-123.048777
 20
73.452988
 11
-133.404315
 21
73.452988
  0
LINE
  8
寸法
  6
BYBLOCK
 62
     0
 10
-123.04878
 20
38.452988
 11
-133.404317
 21
38.452988
  0
LINE
  8
寸法
  6
BYBLOCK
 62
     0
 10
-133.404315
 20
73.452988
 11
-133.404317
 21
38.452988
  0
POINT
  8
寸法
 62
     0
 10
-133.404315
 20
73.452988
  0
POINT
  8
寸法
 62
     0
 10
-133.404317
 20
38.452988
  0
TEXT
  7
TextStyle03
  8
寸法
  6
CONTINUOUS
 62
     0
 10
-133.8
 20
53.4875
  1
700
 40
3.0
 50
90.0
 72
     5
 11
-133.8
 21
58.3625
  0
ENDBLK
  0
BLOCK
  2
*DIM_0011
 70
    65
 10
0.0
 20
0.0
  0
LINE
  8
寸法
  6
BYBLOCK
 62
     0
 10
82.758585
 20
-80.399633
 11
82.758585
 21
-96.12265
  0
LINE
  8
寸法
  6
BYBLOCK
 62
     0
 10
149.378162
 20
-80.399633
 11
149.378162
 21
-96.12265
  0
LINE
  8
寸法
  6
BYBLOCK
 62
     0
 10
82.758585
 20
-96.12265
 11
149.378162
 21
-96.12265
  0
POINT
  8
寸法
 62
     0
 10
82.758585
 20
-96.12265
  0
POINT
  8
寸法
 62
     0
 10
149.378162
 20
-96.12265
  0
TEXT
  7
TextStyle03
  8
寸法
  6
CONTINUOUS
 62
     0
 10
111.08125
 20
-95.75
  1
1332.4
 40
3.0
 72
     5
 11
121.01875
 21
-95.75
  0
ENDBLK
  0
BLOCK
  2
*DIM_0012
 70
    65
 10
0.0
 20
0.0
  0
LINE
  8
寸法
  6
BYBLOCK
 62
     0
 10
152.378162
 20
-77.399633
 11
166.205628
 21
-77.399633
  0
LINE
  8
寸法
  6
BYBLOCK
 62
     0
 10
119.068375
 20
-30.292677
 11
166.205628
 21
-30.292677
  0
LINE
  8
寸法
  6
BYBLOCK
 62
     0
 10
166.205628
 20
-77.399633
 11
166.205628
 21
-30.292677
  0
POINT
  8
寸法
 62
     0
 10
166.205628
 20
-77.399633
  0
POINT
  8
寸法
 62
     0
 10
166.205628
 20
-30.292677
  0
TEXT
  7
TextStyle03
  8
寸法
  6
CONTINUOUS
 62
     0
 10
165.825
 20
-57.975
  1
942.1
 40
3.0
 50
90.0
 72
     5
 11
165.825
 21
-49.725
  0
ENDBLK
  0
ENDSEC
  0
SECTION
  2
ENTITIES
  0
POLYLINE
  8
通り芯
  6
CONTINUOUS
 66
     1
 70
     1
  0
VERTEX
  8
通り芯
 10
-210.0
 20
-148.5
  0
VERTEX
  8
通り芯
 10
210.0
 20
-148.5
  0
VERTEX
  8
通り芯
 10
210.0
 20
148.5
  0
VERTEX
  8
通り芯
 10
-210.0
 20
148.5
  0
SEQEND
  0
INSERT
  2
*GRP_0001
  8
型材断面
  6
CONTINUOUS
 10
0.0
 20
0.0
  0
LINE
  8
型材断面
  6
CONTINUOUS
 10
-25.926112
 20
-59.249723
 11
-25.625342
 21
-59.550495
  0
LINE
  8
型材断面
  6
CONTINUOUS
 10
-25.625342
 20
-60.89669
 11
-25.625342
 21
-59.550495
  0
LINE
  8
型材断面
  6
CONTINUOUS
 62
    47
 10
-25.625342
 20
-61.59669
 11
-25.625342
 21
-60.89669
  0
LINE
  8
型材断面
  6
CONTINUOUS
 62
    47
 10
-26.300342
 20
-61.59669
 11
-26.300342
 21
-62.09669
  0
LINE
  8
型材断面
  6
CONTINUOUS
 62
    47
 10
-27.269618
 20
-57.90622
 11
-25.926112
 21
-59.249723
  0
LINE
  8
型材断面
  6
CONTINUOUS
 10
-27.62317
 20
-57.552668
 11
-31.173075
 21
-57.552668
  0
LINE
  8
型材断面
  6
CONTINUOUS
 10
-27.269618
 20
-57.90622
 11
-62.400342
 21
-22.775495
  0
LINE
  8
型材断面
  6
CONTINUOUS
 10
-58.150342
 20
-26.91953
 11
-62.400342
 21
-26.91953
  0
LINE
  8
型材断面
  6
CONTINUOUS
 10
-66.65034
 20
-26.91953
 11
-62.400342
 21
-26.91953
  0
LINE
  8
型材断面
  6
CONTINUOUS
 10
-66.597358
 20
-26.972512
 11
-62.400342
 21
-26.972512
  0
LINE
  8
型材断面
  6
CONTINUOUS
 10
-62.400342
 20
-22.66953
 11
-58.150342
 21
-26.91953
  0
LINE
  8
型材断面
  6
CONTINUOUS
 10
-62.400342
 20
-22.66953
 11
-66.65034
 21
-26.91953
  0
LINE
  8
型材断面
  6
CONTINUOUS
 10
-58.203327
 20
-26.972512
 11
-62.400342
 21
-26.972512
  0
LINE
  8
型材断面
  6
CONTINUOUS
 10
-66.65034
 20
-26.91953
 11
-66.597358
 21
-26.972512
  0
LINE
  8
型材断面
  6
CONTINUOUS
 10
-58.203327
 20
-26.972512
 11
-58.150342
 21
-26.91953
  0
LINE
  8
型材断面
  6
CONTINUOUS
 10
-30.890233
 20
-57.552668
 11
-61.47038
 21
-26.972512
  0
LINE
  8
型材断面
  6
CONTINUOUS
 10
-31.173075
 20
-57.552668
 11
-61.753222
 21
-26.972512
  0
LINE
  8
型材断面
  6
CONTINUOUS
 10
-27.976725
 20
-57.552668
 11
-58.55688
 21
-26.972512
  0
LINE
  8
型材断面
  6
CONTINUOUS
 10
-25.625342
 20
-61.59669
 11
-62.400342
 21
-61.59669
  0
LINE
  8
型材断面
  6
CONTINUOUS
 10
-25.625342
 20
-60.89669
 11
-62.400342
 21
-60.89669
  0
LINE
  8
型材断面
  6
CONTINUOUS
 10
-26.300342
 20
-62.09669
 11
-62.400342
 21
-62.09669
  0
LINE
  8
型材断面
  6
CONTINUOUS
 10
-25.625342
 20
-59.550495
 11
-62.400342
 21
-59.550495
  0
LINE
  8
型材断面
  6
CONTINUOUS
 10
-26.279667
 20
-58.89617
 11
-62.400342
 21
-58.89617
  0
LINE
  8
型材断面
  6
CONTINUOUS
 10
-27.269618
 20
-57.90622
 11
-62.400342
 21
-57.90622
  0
LINE
  8
型材断面
  6
CONTINUOUS
 10
-25.926112
 20
-59.249723
 11
-62.400342
 21
-59.249723
  0
LINE
  8
型材断面
  6
CONTINUOUS
 10
-98.874572
 20
-59.249723
 11
-99.175342
 21
-59.550495
  0
LINE
  8
型材断面
  6
CONTINUOUS
 10
-99.175342
 20
-60.89669
 11
-99.175342
 21
-59.550495
  0
LINE
  8
型材断面
  6
CONTINUOUS
 62
    47
 10
-99.175342
 20
-61.59669
 11
-99.175342
 21
-60.89669
  0
LINE
  8
型材断面
  6
CONTINUOUS
 62
    47
 10
-98.500342
 20
-61.59669
 11
-98.500342
 21
-62.09669
  0
LINE
  8
型材断面
  6
CONTINUOUS
 62
    47
 10
-97.531067
 20
-57.90622
 11
-98.874572
 21
-59.249723
  0
LINE
  8
型材断面
  6
CONTINUOUS
 10
-97.177515
 20
-57.552668
 11
-93.62761
 21
-57.552668
  0
LINE
  8
型材断面
  6
CONTINUOUS
 10
-97.531067
 20
-57.90622
 11
-62.400342
 21
-22.775495
  0
LINE
  8
型材断面
  6
CONTINUOUS
 10
-93.910452
 20
-57.552668
 11
-63.330305
 21
-26.972512
  0
LINE
  8
型材断面
  6
CONTINUOUS
 10
-93.62761
 20
-57.552668
 11
-63.047462
 21
-26.972512
  0
LINE
  8
型材断面
  6
CONTINUOUS
 10
-96.82396
 20
-57.552668
 11
-66.243805
 21
-26.972512
  0
LINE
  8
型材断面
  6
CONTINUOUS
 10
-99.175342
 20
-61.59669
 11
-62.400342
 21
-61.59669
  0
LINE
  8
型材断面
  6
CONTINUOUS
 10
-99.175342
 20
-60.89669
 11
-62.400342
 21
-60.89669
  0
LINE
  8
型材断面
  6
CONTINUOUS
 10
-98.500342
 20
-62.09669
 11
-62.400342
 21
-62.09669
  0
LINE
  8
型材断面
  6
CONTINUOUS
 10
-99.175342
 20
-59.550495
 11
-62.400342
 21
-59.550495
  0
LINE
  8
型材断面
  6
CONTINUOUS
 10
-98.521018
 20
-58.89617
 11
-62.400342
 21
-58.89617
  0
LINE
  8
型材断面
  6
CONTINUOUS
 10
-97.531067
 20
-57.90622
 11
-62.400342
 21
-57.90622
  0
LINE
  8
型材断面
  6
CONTINUOUS
 10
-98.874572
 20
-59.249723
 11
-62.400342
 21
-59.249723
  0
LINE
  8
型材断面
  6
CONTINUOUS
 10
-30.89023
 20
21.17581
 11
-27.62317
 21
21.17581
  0
LINE
  8
型材断面
  6
CONTINUOUS
 10
-27.62317
 20
21.17581
 11
-27.62317
 21
24.44287
  0
LINE
  8
型材断面
  6
CONTINUOUS
 10
-25.625342
 20
19.177985
 11
-62.400342
 21
19.177985
  0
LINE
  8
型材断面
  6
CONTINUOUS
 10
-26.279667
 20
19.832308
 11
-62.400342
 21
19.832308
  0
LINE
  8
型材断面
  6
CONTINUOUS
 10
-27.55246
 20
21.1051
 11
-62.400342
 21
21.1051
  0
LINE
  8
型材断面
  6
CONTINUOUS
 10
-27.269618
 20
20.822257
 11
-62.400342
 21
20.822257
  0
LINE
  8
型材断面
  6
CONTINUOUS
 10
-25.926112
 20
19.478755
 11
-62.400342
 21
19.478755
  0
LINE
  8
型材断面
  6
DASHDOT
 10
-29.900342
 20
23.452985
 11
-94.900342
 21
23.452985
  0
LINE
  8
型材断面
  6
DASHDOT
 10
-29.900342
 20
55.952985
 11
-94.900342
 21
55.952985
  0
LINE
  8
型材断面
  6
DASHDOT
 10
-29.900342
 20
88.452985
 11
-94.900342
 21
88.452985
  0
LINE
  8
型材断面
  6
CONTINUOUS
 10
-62.400342
 20
51.702985
 11
-58.150342
 21
51.702985
  0
LINE
  8
型材断面
  6
CONTINUOUS
 10
-58.150342
 20
55.952985
 11
-58.150342
 21
51.702985
  0
LINE
  8
型材断面
  6
CONTINUOUS
 10
-58.150342
 20
51.702985
 11
-62.400342
 21
55.952985
  0
LINE
  8
型材断面
  6
CONTINUOUS
 10
-30.89023
 20
21.17581
 11
-61.417397
 21
51.702985
  0
LINE
  8
型材断面
  6
CONTINUOUS
 10
-27.976722
 20
21.17581
 11
-58.50389
 21
51.702985
  0
LINE
  8
型材断面
  6
DASHDOT
 10
-25.625342
 20
19.177985
 11
-58.150342
 21
51.702985
  0
LINE
  8
型材断面
  6
CONTINUOUS
 10
-27.62317
 20
24.44287
 11
-58.150342
 21
54.97005
  0
LINE
  8
型材断面
  6
CONTINUOUS
 10
-27.62317
 20
21.529365
 11
-58.150342
 21
52.056545
  0
LINE
  8
型材断面
  6
CONTINUOUS
 10
-27.269618
 20
20.822257
 11
-27.269618
 21
55.952985
  0
LINE
  8
型材断面
  6
CONTINUOUS
 10
-27.55246
 20
21.1051
 11
-27.55246
 21
55.952985
  0
LINE
  8
型材断面
  6
CONTINUOUS
 10
-25.625342
 20
19.177985
 11
-25.625342
 21
55.952985
  0
LINE
  8
型材断面
  6
CONTINUOUS
 10
-25.926112
 20
19.478755
 11
-25.926112
 21
55.952985
  0
LINE
  8
型材断面
  6
CONTINUOUS
 10
-26.279667
 20
19.832308
 11
-26.279667
 21
55.952985
  0
LINE
  8
型材断面
  6
CONTINUOUS
 10
-93.910455
 20
21.17581
 11
-97.177515
 21
21.17581
  0
LINE
  8
型材断面
  6
CONTINUOUS
 10
-97.177515
 20
21.17581
 11
-97.177515
 21
24.44287
  0
LINE
  8
型材断面
  6
CONTINUOUS
 10
-99.175342
 20
19.177985
 11
-62.400342
 21
19.177985
  0
LINE
  8
型材断面
  6
CONTINUOUS
 10
-98.521018
 20
19.832308
 11
-62.400342
 21
19.832308
  0
LINE
  8
型材断面
  6
CONTINUOUS
 10
-97.248225
 20
21.1051
 11
-62.400342
 21
21.1051
  0
LINE
  8
型材断面
  6
CONTINUOUS
 10
-97.531067
 20
20.822257
 11
-62.400342
 21
20.822257
  0
LINE
  8
型材断面
  6
CONTINUOUS
 10
-98.874572
 20
19.478755
 11
-62.400342
 21
19.478755
  0
LINE
  8
型材断面
  6
CONTINUOUS
 10
-62.400342
 20
51.702985
 11
-66.650342
 21
51.702985
  0
LINE
  8
型材断面
  6
CONTINUOUS
 10
-66.650342
 20
55.952985
 11
-66.650342
 21
51.702985
  0
LINE
  8
型材断面
  6
CONTINUOUS
 10
-66.650342
 20
51.702985
 11
-62.400342
 21
55.952985
  0
LINE
  8
型材断面
  6
CONTINUOUS
 10
-93.910455
 20
21.17581
 11
-63.383288
 21
51.702985
  0
LINE
  8
型材断面
  6
CONTINUOUS
 10
-96.823963
 20
21.17581
 11
-66.296795
 21
51.702985
  0
LINE
  8
型材断面
  6
DASHDOT
 10
-99.175342
 20
19.177985
 11
-66.650342
 21
51.702985
  0
LINE
  8
型材断面
  6
CONTINUOUS
 10
-97.177515
 20
24.44287
 11
-66.650342
 21
54.97005
  0
LINE
  8
型材断面
  6
CONTINUOUS
 10
-97.177515
 20
21.529365
 11
-66.650342
 21
52.056545
  0
LINE
  8
型材断面
  6
CONTINUOUS
 10
-97.531067
 20
20.822257
 11
-97.531067
 21
55.952985
  0
LINE
  8
型材断面
  6
CONTINUOUS
 10
-97.248225
 20
21.1051
 11
-97.248225
 21
55.952985
  0
LINE
  8
型材断面
  6
CONTINUOUS
 10
-99.175342
 20
19.177985
 11
-99.175342
 21
55.952985
  0
LINE
  8
型材断面
  6
CONTINUOUS
 10
-98.874572
 20
19.478755
 11
-98.874572
 21
55.952985
  0
LINE
  8
型材断面
  6
CONTINUOUS
 10
-98.521018
 20
19.832308
 11
-98.521018
 21
55.952985
  0
LINE
  8
型材断面
  6
CONTINUOUS
 10
-93.910455
 20
90.73016
 11
-97.177515
 21
90.73016
  0
LINE
  8
型材断面
  6
CONTINUOUS
 10
-97.177515
 20
90.73016
 11
-97.177515
 21
87.4631
  0
LINE
  8
型材断面
  6
CONTINUOUS
 10
-99.175342
 20
92.727985
 11
-62.400342
 21
92.727985
  0
LINE
  8
型材断面
  6
CONTINUOUS
 10
-98.521018
 20
92.073662
 11
-62.400342
 21
92.073662
  0
LINE
  8
型材断面
  6
CONTINUOUS
 10
-97.248225
 20
90.80087
 11
-62.400342
 21
90.80087
  0
LINE
  8
型材断面
  6
CONTINUOUS
 10
-97.531067
 20
91.083713
 11
-62.400342
 21
91.083713
  0
LINE
  8
型材断面
  6
CONTINUOUS
 10
-98.874572
 20
92.427215
 11
-62.400342
 21
92.427215
  0
LINE
  8
型材断面
  6
CONTINUOUS
 10
-62.400342
 20
60.202985
 11
-66.650342
 21
60.202985
  0
LINE
  8
型材断面
  6
CONTINUOUS
 10
-66.650342
 20
55.952985
 11
-66.650342
 21
60.202985
  0
LINE
  8
型材断面
  6
CONTINUOUS
 10
-66.650342
 20
60.202985
 11
-62.400342
 21
55.952985
  0
LINE
  8
型材断面
  6
CONTINUOUS
 10
-93.910455
 20
90.73016
 11
-63.383288
 21
60.202985
  0
LINE
  8
型材断面
  6
CONTINUOUS
 10
-96.823963
 20
90.73016
 11
-66.296795
 21
60.202985
  0
LINE
  8
型材断面
  6
DASHDOT
 10
-99.175342
 20
92.727985
 11
-66.650342
 21
60.202985
  0
LINE
  8
型材断面
  6
CONTINUOUS
 10
-97.177515
 20
87.4631
 11
-66.650342
 21
56.93592
  0
LINE
  8
型材断面
  6
CONTINUOUS
 10
-97.177515
 20
90.376605
 11
-66.650342
 21
59.849425
  0
LINE
  8
型材断面
  6
CONTINUOUS
 10
-97.531067
 20
91.083713
 11
-97.531067
 21
55.952985
  0
LINE
  8
型材断面
  6
CONTINUOUS
 10
-97.248225
 20
90.80087
 11
-97.248225
 21
55.952985
  0
LINE
  8
型材断面
  6
CONTINUOUS
 10
-99.175342
 20
92.727985
 11
-99.175342
 21
55.952985
  0
LINE
  8
型材断面
  6
CONTINUOUS
 10
-98.874572
 20
92.427215
 11
-98.874572
 21
55.952985
  0
LINE
  8
型材断面
  6
CONTINUOUS
 10
-98.521018
 20
92.073662
 11
-98.521018
 21
55.952985
  0
LINE
  8
型材断面
  6
CONTINUOUS
 10
-30.89023
 20
90.73016
 11
-27.62317
 21
90.73016
  0
LINE
  8
型材断面
  6
CONTINUOUS
 10
-27.62317
 20
90.73016
 11
-27.62317
 21
87.4631
  0
LINE
  8
型材断面
  6
CONTINUOUS
 10
-25.625342
 20
92.727985
 11
-62.400342
 21
92.727985
  0
LINE
  8
型材断面
  6
CONTINUOUS
 10
-26.279667
 20
92.073662
 11
-62.400342
 21
92.073662
  0
LINE
  8
型材断面
  6
CONTINUOUS
 10
-27.55246
 20
90.80087
 11
-62.400342
 21
90.80087
  0
LINE
  8
型材断面
  6
CONTINUOUS
 10
-27.269618
 20
91.083713
 11
-62.400342
 21
91.083713
  0
LINE
  8
型材断面
  6
CONTINUOUS
 10
-25.926112
 20
92.427215
 11
-62.400342
 21
92.427215
  0
LINE
  8
型材断面
  6
CONTINUOUS
 10
-62.400342
 20
60.202985
 11
-58.150342
 21
60.202985
  0
LINE
  8
型材断面
  6
CONTINUOUS
 10
-58.150342
 20
55.952985
 11
-58.150342
 21
60.202985
  0
LINE
  8
型材断面
  6
CONTINUOUS
 10
-58.150342
 20
60.202985
 11
-62.400342
 21
55.952985
  0
LINE
  8
型材断面
  6
CONTINUOUS
 10
-30.89023
 20
90.73016
 11
-61.417397
 21
60.202985
  0
LINE
  8
型材断面
  6
CONTINUOUS
 10
-27.976722
 20
90.73016
 11
-58.50389
 21
60.202985
  0
LINE
  8
型材断面
  6
DASHDOT
 10
-25.625342
 20
92.727985
 11
-58.150342
 21
60.202985
  0
LINE
  8
型材断面
  6
CONTINUOUS
 10
-27.62317
 20
87.4631
 11
-58.150342
 21
56.93592
  0
LINE
  8
型材断面
  6
CONTINUOUS
 10
-27.62317
 20
90.376605
 11
-58.150342
 21
59.849425
  0
LINE
  8
型材断面
  6
CONTINUOUS
 10
-27.269618
 20
91.083713
 11
-27.269618
 21
55.952985
  0
LINE
  8
型材断面
  6
CONTINUOUS
 10
-27.55246
 20
90.80087
 11
-27.55246
 21
55.952985
  0
LINE
  8
型材断面
  6
CONTINUOUS
 10
-25.625342
 20
92.727985
 11
-25.625342
 21
55.952985
  0
LINE
  8
型材断面
  6
CONTINUOUS
 10
-25.926112
 20
92.427215
 11
-25.926112
 21
55.952985
  0
LINE
  8
型材断面
  6
CONTINUOUS
 10
-26.279667
 20
92.073662
 11
-26.279667
 21
55.952985
  0
LINE
  8
型材断面
  6
DASHDOT
 10
-94.900342
 20
-69.07169
 11
-94.900342
 21
88.452985
  0
LINE
  8
型材断面
  6
DASHDOT
 10
-29.900342
 20
-69.07169
 11
-29.900342
 21
88.452985
  0
LINE
  8
型材断面
  6
DASHDOT
 10
-62.400342
 20
-69.07169
 11
-62.400342
 21
88.452985
  0
LINE
  8
型材断面
  6
CONTINUOUS
 10
-21.876468
 20
55.952985
 11
-17.990708
 21
53.70954
  0
LINE
  8
型材断面
  6
CONTINUOUS
 10
-21.876468
 20
55.952985
 11
-17.990708
 21
58.19643
  0
LINE
  8
型材断面
  6
CONTINUOUS
 10
-17.990708
 20
58.19643
 11
-17.990708
 21
53.70954
  0
LINE
  8
型材断面
  6
CONTINUOUS
 10
-62.400342
 20
96.47686
 11
-64.643787
 21
100.36262
  0
LINE
  8
型材断面
  6
CONTINUOUS
 10
-62.400342
 20
96.47686
 11
-60.156898
 21
100.36262
  0
LINE
  8
型材断面
  6
CONTINUOUS
 10
-60.156898
 20
100.36262
 11
-64.643787
 21
100.36262
  0
LINE
  8
型材断面
  6
CONTINUOUS
 10
-62.400342
 20
15.42911
 11
-64.643787
 21
11.54335
  0
LINE
  8
型材断面
  6
CONTINUOUS
 10
-62.400342
 20
15.42911
 11
-60.156898
 21
11.54335
  0
LINE
  8
型材断面
  6
CONTINUOUS
 10
-60.156898
 20
11.54335
 11
-64.643787
 21
11.54335
  0
LINE
  8
型材断面
  6
CONTINUOUS
 10
-102.924218
 20
55.952985
 11
-106.809977
 21
53.70954
  0
LINE
  8
型材断面
  6
CONTINUOUS
 10
-102.924218
 20
55.952985
 11
-106.809977
 21
58.19643
  0
LINE
  8
型材断面
  6
CONTINUOUS
 10
-106.809977
 20
58.19643
 11
-106.809977
 21
53.70954
  0
LINE
  8
型材断面
  6
CONTINUOUS
 10
14.471445
 20
25.985962
 11
12.228
 21
22.100202
  0
LINE
  8
型材断面
  6
CONTINUOUS
 10
14.471445
 20
25.985962
 11
16.71489
 21
22.100202
  0
LINE
  8
型材断面
  6
CONTINUOUS
 10
16.71489
 20
22.100202
 11
12.228
 21
22.100202
  0
LINE
  8
型材断面
  6
CONTINUOUS
 10
5.437565
 20
20.69231
 11
58.094245
 21
20.69231
  0
LINE
  8
型材断面
  6
CONTINUOUS
 10
5.437565
 20
13.6852
 11
58.094245
 21
13.6852
  0
LINE
  8
型材断面
  6
CONTINUOUS
 10
83.483072
 20
-25.810232
 11
107.414695
 21
-25.810232
  0
LINE
  8
ガラス
  6
CONTINUOUS
 10
-60.395895
 20
-44.795025
 11
-64.26853
 21
-48.66766
  0
LINE
  8
ガラス
  6
CONTINUOUS
 10
-61.276217
 20
-46.393383
 11
-62.670172
 21
-47.787338
  0
LINE
  8
ガラス
  6
CONTINUOUS
 10
-61.994253
 20
-45.675348
 11
-63.388208
 21
-47.069302
  0
LINE
  8
ガラス
  6
CONTINUOUS
 10
-60.587118
 20
80.9127
 11
-64.459753
 21
77.040065
  0
LINE
  8
ガラス
  6
CONTINUOUS
 10
-61.46744
 20
79.314343
 11
-62.861395
 21
77.920387
  0
LINE
  8
ガラス
  6
CONTINUOUS
 10
-62.185475
 20
80.032378
 11
-63.57943
 21
78.638422
  0
LINE
  8
ガラス
  6
CONTINUOUS
 10
-60.587118
 20
37.165432
 11
-64.459753
 21
33.292798
  0
LINE
  8
ガラス
  6
CONTINUOUS
 10
-61.46744
 20
35.567075
 11
-62.861395
 21
34.17312
  0
LINE
  8
ガラス
  6
CONTINUOUS
 10
-62.185475
 20
36.28511
 11
-63.57943
 21
34.891155
  0
LINE
  8
ガラス
  6
CONTINUOUS
 10
-40.43608
 20
57.840688
 11
-44.308715
 21
53.968052
  0
LINE
  8
ガラス
  6
CONTINUOUS
 10
-41.316403
 20
56.24233
 11
-42.710358
 21
54.848375
  0
LINE
  8
ガラス
  6
CONTINUOUS
 10
-42.034437
 20
56.960365
 11
-43.428392
 21
55.56641
  0
LINE
  8
ガラス
  6
CONTINUOUS
 10
-80.294402
 20
57.840688
 11
-84.167037
 21
53.968052
  0
LINE
  8
ガラス
  6
CONTINUOUS
 10
-81.174725
 20
56.24233
 11
-82.56868
 21
54.848375
  0
LINE
  8
ガラス
  6
CONTINUOUS
 10
-81.89276
 20
56.960365
 11
-83.286715
 21
55.56641
  0
TEXT
  7
TextStyle03
  8
文字
  6
CONTINUOUS
 10
18.7
 20
22.4
  1
は排水穴位置を示す
 40
3.0
 72
     5
 11
48.7
 21
22.4
  0
TEXT
  7
TextStyle03
  8
文字
  6
CONTINUOUS
 10
71.625
 20
94.25
  1
ＮＳコード：ＮＳ４ＣＫＳ
 40
5.0
 72
     5
 11
138.5
 21
94.25
  0
TEXT
  7
TextStyle03
  8
文字
  6
CONTINUOUS
 10
13.1
 20
15.05
  1
アンカー数量　８ヶ所
 40
3.0
 72
     5
 11
46.475
 21
15.05
  0
TEXT
  7
TextStyle03
  8
文字
  6
CONTINUOUS
 10
-126.4
 20
12.55
  1
アンカーピッチ
 40
3.0
 50
90.0
 72
     5
 11
-126.4
 21
35.8
  0
TEXT
  7
TextStyle03
  8
文字
  6
CONTINUOUS
 10
-109.4
 20
115.35
  1
アンカーピッチ
 40
3.0
 72
     5
 11
-86.15
 21
115.35
  0
TEXT
  7
TextStyle03
  8
文字
  6
CONTINUOUS
 10
127.35
 20
-74.325
  1
×４枚
 40
3.0
 72
     5
 11
137.1
 21
-74.325
  0
TEXT
  7
TextStyle03
  8
文字
  6
CONTINUOUS
 10
87.075
 20
-24.6
  1
ガラス寸法
 40
3.0
 72
     5
 11
103.575
 21
-24.6
  0
TEXT
  7
TextStyle03
  8
文字
  6
CONTINUOUS
 10
71.65
 20
120.625
  1
シリーズ：ＳＴＦ４Ｋ
 40
5.0
 72
     5
 11
127.275
 21
120.625
  0
TEXT
  7
TextStyle03
  8
文字
  6
CONTINUOUS
 10
71.65
 20
115.0
  1
　　　　　四角錘（固定）1300×1300タイプ
 40
5.0
 72
     5
 11
183.525
 21
115.0
  0
TEXT
  7
TextStyle03
  8
文字
  6
CONTINUOUS
 10
71.65
 20
109.375
  1
　　　　　ペアガラス仕様
 40
5.0
 72
     5
 11
138.525
 21
109.375
  0
TEXT
  7
TextStyle03
  8
文字
  6
CONTINUOUS
 10
71.65
 20
103.75
  1
図面名　：外観姿図
 40
5.0
 72
     5
 11
121.65
 21
103.75
  0
TEXT
  7
TextStyle03
  8
文字
  6
CONTINUOUS
 10
71.65
 20
98.125
  1
　　　　　　
 40
5.0
 72
     5
 11
104.775
 21
98.125
  0
INSERT
  2
*DIM_0002
  8
寸法
  6
CONTINUOUS
 10
0.0
 20
0.0
  0
INSERT
  2
*DIM_0003
  8
寸法
  6
CONTINUOUS
 10
0.0
 20
0.0
  0
INSERT
  2
*DIM_0004
  8
寸法
  6
CONTINUOUS
 10
0.0
 20
0.0
  0
INSERT
  2
*DIM_0005
  8
寸法
  6
CONTINUOUS
 10
0.0
 20
0.0
  0
INSERT
  2
*DIM_0006
  8
寸法
  6
CONTINUOUS
 10
0.0
 20
0.0
  0
INSERT
  2
*DIM_0007
  8
寸法
  6
CONTINUOUS
 10
0.0
 20
0.0
  0
INSERT
  2
*DIM_0008
  8
寸法
  6
CONTINUOUS
 10
0.0
 20
0.0
  0
INSERT
  2
*DIM_0009
  8
寸法
  6
CONTINUOUS
 10
0.0
 20
0.0
  0
INSERT
  2
*DIM_0010
  8
寸法
  6
CONTINUOUS
 10
0.0
 20
0.0
  0
INSERT
  2
*DIM_0011
  8
寸法
  6
CONTINUOUS
 10
0.0
 20
0.0
  0
INSERT
  2
*DIM_0012
  8
寸法
  6
CONTINUOUS
 10
0.0
 20
0.0
  0
LINE
  8
曲げ物
  6
CONTINUOUS
 10
82.758585
 20
-77.399633
 11
116.068375
 21
-30.292677
  0
LINE
  8
曲げ物
  6
CONTINUOUS
 10
116.068375
 20
-30.292677
 11
149.378162
 21
-77.399633
  0
LINE
  8
曲げ物
  6
CONTINUOUS
 10
82.758585
 20
-77.399633
 11
149.378162
 21
-77.399633
  0
ENDSEC
  0
EOF
