  0
SECTION
  2
HEADER
  9
$EXTMIN
 10
-210.0
 20
-148.5
  9
$EXTMAX
 10
210.0
 20
148.5
  9
$PDMODE
 70
    32
  9
$PDSIZE
 40
1.5
  9
$LTSCALE
 40
10.0
  0
ENDSEC
  0
SECTION
  2
TABLES
  0
TABLE
  2
LTYPE
 70
    15
  0
LTYPE
  2
CONTINUOUS
 70
    64
  3
実線
 72
    65
 73
     0
 40
0.0
  0
LTYPE
  2
DASHED
 70
    64
  3
破線A
 72
    65
 73
     2
 40
0.6
 49
0.4
 49
-0.2
  0
LTYPE
  2
DASHEDX2
 70
    64
  3
破線B
 72
    65
 73
     2
 40
1.3
 49
0.9
 49
-0.4
  0
LTYPE
  2
DASHDOT
 70
    64
  3
１点鎖線A
 72
    65
 73
     4
 40
0.5375
 49
0.375
 49
-0.05
 49
0.0625
 49
-0.05
  0
LTYPE
  2
DASHDOTX2
 70
    64
  3
１点鎖線B
 72
    65
 73
     4
 40
1.075
 49
0.75
 49
-0.1
 49
0.125
 49
-0.1
  0
LTYPE
  2
DIVIDE2
 70
    64
  3
２点鎖線A
 72
    65
 73
     6
 40
0.5125
 49
0.3
 49
-0.0375
 49
0.05
 49
-0.0375
 49
0.05
 49
-0.0375
  0
LTYPE
  2
DIVIDE
 70
    64
  3
２点鎖線B
 72
    65
 73
     6
 40
1.05
 49
0.55
 49
-0.1
 49
0.1
 49
-0.1
 49
0.1
 49
-0.1
  0
LTYPE
  2
DOT
 70
    64
  3
点線A
 72
    65
 73
     2
 40
0.1125
 49
0.0625
 49
-0.05
  0
LTYPE
  2
DOTX2
 70
    64
  3
点線B
 72
    65
 73
     2
 40
0.275
 49
0.15
 49
-0.125
  0
LTYPE
  2
CONTINUOUS
 70
    64
  3
実線
 72
    65
 73
     0
 40
0.0
  0
LTYPE
  2
CONTINUOUS
 70
    64
  3
実線
 72
    65
 73
     0
 40
0.0
  0
LTYPE
  2
CONTINUOUS
 70
    64
  3
実線
 72
    65
 73
     0
 40
0.0
  0
LTYPE
  2
CONTINUOUS
 70
    64
  3
実線
 72
    65
 73
     0
 40
0.0
  0
LTYPE
  2
CONTINUOUS
 70
    64
  3
実線
 72
    65
 73
     0
 40
0.0
  0
LTYPE
  2
CONTINUOUS
 70
    64
  3
実線
 72
    65
 73
     0
 40
0.0
  0
ENDTAB
  0
TABLE
  2
LAYER
 70
    34
  0
LAYER
  2
通り芯
 70
     0
 62
    15
  6
CONTINUOUS
  0
LAYER
  2
補助線
 70
     0
 62
    16
  6
DOT
  0
LAYER
  2
躯体
 70
     0
 62
    31
  6
CONTINUOUS
  0
LAYER
  2
型材
 70
     0
 62
    32
  6
CONTINUOUS
  0
LAYER
  2
型材断面
 70
     0
 62
    47
  6
CONTINUOUS
  0
LAYER
  2
ガラス
 70
     0
 62
    48
  6
CONTINUOUS
  0
LAYER
  2
ゴム等
 70
     0
 62
    63
  6
CONTINUOUS
  0
LAYER
  2
ボルト／ビス
 70
     0
 62
    64
  6
CONTINUOUS
  0
LAYER
  2
文字
 70
     0
 62
    79
  6
CONTINUOUS
  0
LAYER
  2
寸法
 70
     0
 62
    80
  6
CONTINUOUS
  0
LAYER
  2
ﾊｯﾁﾝｸﾞ
 70
     0
 62
    95
  6
CONTINUOUS
  0
LAYER
  2
別途部材
 70
     0
 62
    96
  6
CONTINUOUS
  0
LAYER
  2
曲げ物
 70
     0
 62
   111
  6
CONTINUOUS
  0
LAYER
  2
鉄骨等
 70
     0
 62
   112
  6
CONTINUOUS
  0
LAYER
  2
St
 70
     0
 62
   127
  6
CONTINUOUS
  0
LAYER
  2
その他部品等
 70
     0
 62
   128
  6
CONTINUOUS
  0
LAYER
  2
ｶﾞｽｹｯﾄ
 70
     0
 62
   143
  6
CONTINUOUS
  0
LAYER
  2
ｽｹｯﾁ
 70
     0
 62
    14
  6
CONTINUOUS
  0
LAYER
  2
0
 70
     0
 62
    17
  6
CONTINUOUS
  0
LAYER
  2
1
 70
     0
 62
    30
  6
CONTINUOUS
  0
LAYER
  2
4
 70
     0
 62
    33
  6
CONTINUOUS
  0
LAYER
  2
ﾚｲﾔ3
 70
     0
 62
    46
  6
CONTINUOUS
  0
LAYER
  2
外形線
 70
     0
 62
    49
  6
CONTINUOUS
  0
LAYER
  2
部品
 70
     0
 62
    14
  6
CONTINUOUS
  0
LAYER
  2
サッシ芯
 70
     0
 62
    17
  6
DASHDOTX2
  0
LAYER
  2
寸法線
 70
     0
 62
    62
  6
CONTINUOUS
  0
LAYER
  2
姿図外形線
 70
     0
 62
    65
  6
CONTINUOUS
  0
LAYER
  2
姿補助線
 70
     0
 62
    30
  6
CONTINUOUS
  0
LAYER
  2
透視線
 70
     0
 62
    78
  6
DOT
  0
LAYER
  2
用紙
 70
     0
 62
    81
  6
CONTINUOUS
  0
LAYER
  2
実線図枠
 70
     0
 62
    94
  6
CONTINUOUS
  0
LAYER
  2
補助図枠
 70
     0
 62
    97
  6
CONTINUOUS
  0
LAYER
  2
建具記号
 70
     0
 62
   110
  6
CONTINUOUS
  0
LAYER
  2
補助文字
 70
     0
 62
   113
  6
CONTINUOUS
  0
ENDTAB
  0
TABLE
  2
STYLE
 70
    10
  0
STYLE
  2
STANDARD
 70
     0
 40
1.0
 41
1.0
 42
1.0
 50
0.0
 71
     0
  3
TXT
  4
BIGFONT
  0
STYLE
  2
TATE
 70
     4
 40
1.0
 41
1.0
 42
1.0
 50
0.0
 71
     0
  3
TXT
  4
BIGFONT
  0
STYLE
  2
TextStyle03
 70
     0
 40
1.0
 41
1.0
 42
1.0
 50
0.0
 71
     0
  3
MONOTXT
  4
BIGFONT
  0
STYLE
  2
TextStyle04
 70
     0
 40
1.0
 41
1.0
 42
1.0
 50
0.0
 71
     0
  3
MONOTXT
  4
BIGFONT
  0
STYLE
  2
TextStyle05
 70
     0
 40
1.0
 41
1.0
 42
1.0
 50
0.0
 71
     0
  3
MONOTXT
  4
BIGFONT
  0
STYLE
  2
TextStyle06
 70
     0
 40
1.0
 41
1.0
 42
1.0
 50
0.0
 71
     0
  3
MONOTXT
  4
BIGFONT
  0
STYLE
  2
TextStyle07
 70
     0
 40
1.0
 41
1.0
 42
1.0
 50
0.0
 71
     0
  3
MONOTXT
  4
BIGFONT
  0
STYLE
  2
TextStyle08
 70
     0
 40
1.0
 41
1.0
 42
1.0
 50
0.0
 71
     0
  3
MONOTXT
  4
BIGFONT
  0
STYLE
  2
TextStyle09
 70
     0
 40
1.0
 41
1.0
 42
1.0
 50
0.0
 71
     0
  3
MONOTXT
  4
BIGFONT
  0
STYLE
  2
TextStyle10
 70
     0
 40
1.0
 41
1.0
 42
1.0
 50
0.0
 71
     0
  3
MONOTXT
  4
BIGFONT
  0
ENDTAB
  0
ENDSEC
  0
SECTION
  2
BLOCKS
  0
BLOCK
  2
*GRP_0001
 70
    65
 10
0.0
 20
0.0
  0
LINE
  8
型材断面
  6
CONTINUOUS
 10
195.0
 20
133.5
 11
195.0
 21
-133.5
  0
LINE
  8
型材断面
  6
CONTINUOUS
 10
195.0
 20
-133.5
 11
-185.0
 21
-133.5
  0
LINE
  8
型材断面
  6
CONTINUOUS
 10
-185.0
 20
-133.5
 11
-185.0
 21
133.5
  0
LINE
  8
型材断面
  6
CONTINUOUS
 10
195.0
 20
133.5
 11
-185.0
 21
133.5
  0
LINE
  8
型材断面
  6
CONTINUOUS
 10
145.0
 20
-133.5
 11
145.0
 21
-118.5
  0
LINE
  8
型材断面
  6
CONTINUOUS
 10
195.0
 20
-118.5
 11
145.0
 21
-118.5
  0
ENDBLK
  0
BLOCK
  2
*DIM_0002
 70
    65
 10
0.0
 20
0.0
  0
LINE
  8
寸法
  6
BYBLOCK
 62
     0
 10
-128.742993
 20
-22.207025
 11
-128.742993
 21
-22.536362
  0
LINE
  8
寸法
  6
BYBLOCK
 62
     0
 10
71.257007
 20
-22.207025
 11
71.257007
 21
-22.536362
  0
LINE
  8
寸法
  6
BYBLOCK
 62
     0
 10
-128.742993
 20
-22.536362
 11
71.257007
 21
-22.536362
  0
POINT
  8
寸法
 62
     0
 10
-128.742993
 20
-22.536362
  0
POINT
  8
寸法
 62
     0
 10
71.257007
 20
-22.536362
  0
TEXT
  7
TextStyle03
  8
寸法
  6
CONTINUOUS
 62
     0
 10
-40.46875
 20
-22.175
  1
呼称寸法　6000
 40
3.0
 72
     5
 11
-17.03125
 21
-22.175
  0
ENDBLK
  0
BLOCK
  2
*DIM_0003
 70
    65
 10
0.0
 20
0.0
  0
LINE
  8
寸法
  6
BYBLOCK
 62
     0
 10
57.257007
 20
-71.291265
 11
87.226657
 21
-71.291265
  0
LINE
  8
寸法
  6
BYBLOCK
 62
     0
 10
87.226657
 20
-79.624597
 11
87.226657
 21
-71.291265
  0
POINT
  8
寸法
 62
     0
 10
87.226657
 20
-79.624597
  0
POINT
  8
寸法
 62
     0
 10
87.226657
 20
-71.291265
  0
TEXT
  7
TextStyle03
  8
寸法
  6
CONTINUOUS
 62
     0
 10
86.85
 20
-77.9125
  1
250
 40
3.0
 50
90.0
 72
     5
 11
86.85
 21
-73.0375
  0
ENDBLK
  0
BLOCK
  2
*DIM_0004
 70
    65
 10
0.0
 20
0.0
  0
LINE
  8
寸法
  6
BYBLOCK
 62
     0
 10
-112.076325
 20
9.768917
 11
-112.076325
 21
4.76842
  0
LINE
  8
寸法
  6
BYBLOCK
 62
     0
 10
-28.742993
 20
9.76892
 11
-28.742993
 21
4.76842
  0
LINE
  8
寸法
  6
BYBLOCK
 62
     0
 10
-112.076325
 20
4.76842
 11
-28.742993
 21
4.76842
  0
POINT
  8
寸法
 62
     0
 10
-112.076325
 20
4.76842
  0
POINT
  8
寸法
 62
     0
 10
-28.742993
 20
4.76842
  0
TEXT
  7
TextStyle03
  8
寸法
  6
CONTINUOUS
 62
     0
 10
-73.70625
 20
5.125
  1
2500
 40
3.0
 72
     5
 11
-67.14375
 21
5.125
  0
ENDBLK
  0
BLOCK
  2
*DIM_0005
 70
    65
 10
0.0
 20
0.0
  0
LINE
  8
寸法
  6
BYBLOCK
 62
     0
 10
54.59034
 20
9.768917
 11
54.59034
 21
4.76842
  0
LINE
  8
寸法
  6
BYBLOCK
 62
     0
 10
-28.742993
 20
4.76842
 11
54.59034
 21
4.76842
  0
POINT
  8
寸法
 62
     0
 10
54.59034
 20
4.76842
  0
TEXT
  7
TextStyle03
  8
寸法
  6
CONTINUOUS
 62
     0
 10
9.61875
 20
5.125
  1
2500
 40
3.0
 72
     5
 11
16.18125
 21
5.125
  0
ENDBLK
  0
BLOCK
  2
*DIM_0006
 70
    65
 10
0.0
 20
0.0
  0
LINE
  8
寸法
  6
BYBLOCK
 62
     0
 10
152.45694
 20
29.399048
 11
152.45694
 21
58.954983
  0
LINE
  8
寸法
  6
BYBLOCK
 62
     0
 10
160.790272
 20
58.954983
 11
152.45694
 21
58.954983
  0
POINT
  8
寸法
 62
     0
 10
160.790272
 20
58.954983
  0
POINT
  8
寸法
 62
     0
 10
152.45694
 20
58.954983
  0
TEXT
  7
TextStyle03
  8
寸法
  6
CONTINUOUS
 62
     0
 10
154.1625
 20
59.325
  1
250
 40
3.0
 72
     5
 11
159.0375
 21
59.325
  0
ENDBLK
  0
BLOCK
  2
*DIM_0007
 70
    65
 10
0.0
 20
0.0
  0
LINE
  8
寸法
  6
BYBLOCK
 62
     0
 10
105.276657
 20
13.399048
 11
105.276657
 21
43.399048
  0
POINT
  8
寸法
 62
     0
 10
105.276657
 20
13.399048
  0
POINT
  8
寸法
 62
     0
 10
105.276657
 20
43.399048
  0
TEXT
  7
TextStyle03
  8
寸法
  6
CONTINUOUS
 62
     0
 10
104.9
 20
17.5
  1
呼称寸法　900
 40
3.0
 50
90.0
 72
     5
 11
104.9
 21
39.25
  0
ENDBLK
  0
BLOCK
  2
*DIM_0008
 70
    65
 10
0.0
 20
0.0
  0
LINE
  8
寸法
  6
BYBLOCK
 62
     0
 10
161.373558
 20
10.792235
 11
105.276657
 21
10.792235
  0
LINE
  8
寸法
  6
BYBLOCK
 62
     0
 10
105.276657
 20
13.399048
 11
105.276657
 21
10.792235
  0
POINT
  8
寸法
 62
     0
 10
105.276657
 20
13.399048
  0
POINT
  8
寸法
 62
     0
 10
105.276657
 20
10.792235
  0
TEXT
  7
TextStyle03
  8
寸法
  6
CONTINUOUS
 62
     0
 10
104.825
 20
2.06875
  1
78.2
 40
3.0
 50
90.0
 72
     5
 11
104.825
 21
8.63125
  0
ENDBLK
  0
BLOCK
  2
*DIM_0009
 70
    65
 10
0.0
 20
0.0
  0
LINE
  8
寸法
  6
BYBLOCK
 62
     0
 10
161.373558
 20
46.00586
 11
105.276657
 21
46.00586
  0
LINE
  8
寸法
  6
BYBLOCK
 62
     0
 10
105.276657
 20
43.399048
 11
105.276657
 21
46.00586
  0
POINT
  8
寸法
 62
     0
 10
105.276657
 20
43.399048
  0
POINT
  8
寸法
 62
     0
 10
105.276657
 20
46.00586
  0
TEXT
  7
TextStyle03
  8
寸法
  6
CONTINUOUS
 62
     0
 10
104.825
 20
48.16875
  1
78.2
 40
3.0
 50
90.0
 72
     5
 11
104.825
 21
54.73125
  0
ENDBLK
  0
BLOCK
  2
*DIM_0010
 70
    65
 10
0.0
 20
0.0
  0
LINE
  8
寸法
  6
BYBLOCK
 62
     0
 10
160.790272
 20
46.065715
 11
160.790272
 21
58.954983
  0
LINE
  8
寸法
  6
BYBLOCK
 62
     0
 10
162.873558
 20
47.00586
 11
162.873558
 21
58.954983
  0
LINE
  8
寸法
  6
BYBLOCK
 62
     0
 10
160.790272
 20
58.954983
 11
162.873558
 21
58.954983
  0
POINT
  8
寸法
 62
     0
 10
160.790272
 20
58.954983
  0
POINT
  8
寸法
 62
     0
 10
162.873558
 20
58.954983
  0
TEXT
  7
TextStyle03
  8
寸法
  6
CONTINUOUS
 62
     0
 10
165.24375
 20
59.325
  1
62.5
 40
3.0
 72
     5
 11
171.80625
 21
59.325
  0
ENDBLK
  0
BLOCK
  2
*DIM_0011
 70
    65
 10
0.0
 20
0.0
  0
LINE
  8
寸法
  6
BYBLOCK
 62
     0
 10
73.923675
 20
-79.624597
 11
87.226657
 21
-79.624597
  0
LINE
  8
寸法
  6
BYBLOCK
 62
     0
 10
74.86382
 20
-81.707882
 11
87.226657
 21
-81.707882
  0
LINE
  8
寸法
  6
BYBLOCK
 62
     0
 10
87.226657
 20
-79.624597
 11
87.226657
 21
-81.707882
  0
POINT
  8
寸法
 62
     0
 10
87.226657
 20
-79.624597
  0
POINT
  8
寸法
 62
     0
 10
87.226657
 20
-81.707882
  0
TEXT
  7
TextStyle03
  8
寸法
  6
CONTINUOUS
 62
     0
 10
86.775
 20
-90.70625
  1
62.5
 40
3.0
 50
90.0
 72
     5
 11
86.775
 21
-84.14375
  0
ENDBLK
  0
BLOCK
  2
*DIM_0012
 70
    65
 10
0.0
 20
0.0
  0
LINE
  8
寸法
  6
BYBLOCK
 62
     0
 10
73.86382
 20
-80.207882
 11
73.86382
 21
-22.536362
  0
LINE
  8
寸法
  6
BYBLOCK
 62
     0
 10
71.257007
 20
-22.536362
 11
73.86382
 21
-22.536362
  0
POINT
  8
寸法
 62
     0
 10
71.257007
 20
-22.536362
  0
POINT
  8
寸法
 62
     0
 10
73.86382
 20
-22.536362
  0
TEXT
  7
TextStyle03
  8
寸法
  6
CONTINUOUS
 62
     0
 10
75.94375
 20
-22.15
  1
78.2
 40
3.0
 72
     5
 11
82.50625
 21
-22.15
  0
ENDBLK
  0
BLOCK
  2
*DIM_0013
 70
    65
 10
0.0
 20
0.0
  0
LINE
  8
寸法
  6
BYBLOCK
 62
     0
 10
-131.349805
 20
-80.207882
 11
-131.349805
 21
-22.536362
  0
LINE
  8
寸法
  6
BYBLOCK
 62
     0
 10
-128.742993
 20
-22.536362
 11
-131.349805
 21
-22.536362
  0
POINT
  8
寸法
 62
     0
 10
-128.742993
 20
-22.536362
  0
POINT
  8
寸法
 62
     0
 10
-131.349805
 20
-22.536362
  0
TEXT
  7
TextStyle03
  8
寸法
  6
CONTINUOUS
 62
     0
 10
-140.08125
 20
-22.175
  1
78.2
 40
3.0
 72
     5
 11
-133.51875
 21
-22.175
  0
ENDBLK
  0
BLOCK
  2
*GRP_0014
 70
    65
 10
0.0
 20
0.0
  0
LINE
  8
別途部材
  6
CONTINUOUS
 62
    96
 10
-130.409657
 20
-79.624597
 11
-130.809657
 21
-80.624597
  0
LINE
  8
別途部材
  6
CONTINUOUS
 62
    96
 10
-130.409657
 20
-79.624597
 11
-28.742993
 21
-79.624597
  0
LINE
  8
別途部材
  6
CONTINUOUS
 10
-130.809657
 20
-80.624597
 11
-28.742993
 21
-80.624597
  0
LINE
  8
別途部材
  6
CONTINUOUS
 10
-29.242993
 20
-70.291265
 11
-30.242993
 21
-71.291265
  0
LINE
  8
別途部材
  6
CONTINUOUS
 10
-31.242993
 20
-71.291265
 11
-32.242993
 21
-70.291265
  0
LINE
  8
別途部材
  6
CONTINUOUS
 10
-33.242993
 20
-70.291265
 11
-34.242993
 21
-71.291265
  0
LINE
  8
別途部材
  6
CONTINUOUS
 10
-32.242993
 20
-70.291265
 11
-33.242993
 21
-70.291265
  0
LINE
  8
別途部材
  6
CONTINUOUS
 10
-29.242993
 20
-70.291265
 11
-28.742993
 21
-70.291265
  0
LINE
  8
別途部材
  6
CONTINUOUS
 10
-35.242993
 20
-71.291265
 11
-36.242993
 21
-70.291265
  0
LINE
  8
別途部材
  6
CONTINUOUS
 10
-37.242993
 20
-70.291265
 11
-38.242993
 21
-71.291265
  0
LINE
  8
別途部材
  6
CONTINUOUS
 10
-36.242993
 20
-70.291265
 11
-37.242993
 21
-70.291265
  0
LINE
  8
別途部材
  6
CONTINUOUS
 10
-39.242993
 20
-71.291265
 11
-40.242993
 21
-70.291265
  0
LINE
  8
別途部材
  6
CONTINUOUS
 10
-41.242993
 20
-70.291265
 11
-42.242993
 21
-71.291265
  0
LINE
  8
別途部材
  6
CONTINUOUS
 10
-40.242993
 20
-70.291265
 11
-41.242993
 21
-70.291265
  0
LINE
  8
別途部材
  6
CONTINUOUS
 10
-43.242993
 20
-71.291265
 11
-44.242993
 21
-70.291265
  0
LINE
  8
別途部材
  6
CONTINUOUS
 10
-45.242993
 20
-70.291265
 11
-46.242993
 21
-71.291265
  0
LINE
  8
別途部材
  6
CONTINUOUS
 10
-44.242993
 20
-70.291265
 11
-45.242993
 21
-70.291265
  0
LINE
  8
別途部材
  6
CONTINUOUS
 10
-47.242993
 20
-71.291265
 11
-48.242993
 21
-70.291265
  0
LINE
  8
別途部材
  6
CONTINUOUS
 10
-49.242993
 20
-70.291265
 11
-50.242993
 21
-71.291265
  0
LINE
  8
別途部材
  6
CONTINUOUS
 10
-48.242993
 20
-70.291265
 11
-49.242993
 21
-70.291265
  0
LINE
  8
別途部材
  6
CONTINUOUS
 10
-51.242993
 20
-71.291265
 11
-52.242993
 21
-70.291265
  0
LINE
  8
別途部材
  6
CONTINUOUS
 10
-53.242993
 20
-70.291265
 11
-54.242993
 21
-71.291265
  0
LINE
  8
別途部材
  6
CONTINUOUS
 10
-52.242993
 20
-70.291265
 11
-53.242993
 21
-70.291265
  0
LINE
  8
別途部材
  6
CONTINUOUS
 10
-55.242993
 20
-71.291265
 11
-56.242993
 21
-70.291265
  0
LINE
  8
別途部材
  6
CONTINUOUS
 10
-57.242993
 20
-70.291265
 11
-58.242993
 21
-71.291265
  0
LINE
  8
別途部材
  6
CONTINUOUS
 10
-56.242993
 20
-70.291265
 11
-57.242993
 21
-70.291265
  0
LINE
  8
別途部材
  6
CONTINUOUS
 10
-59.242993
 20
-71.291265
 11
-60.242993
 21
-70.291265
  0
LINE
  8
別途部材
  6
CONTINUOUS
 10
-61.242993
 20
-70.291265
 11
-62.242993
 21
-71.291265
  0
LINE
  8
別途部材
  6
CONTINUOUS
 10
-60.242993
 20
-70.291265
 11
-61.242993
 21
-70.291265
  0
LINE
  8
別途部材
  6
CONTINUOUS
 10
-63.242993
 20
-71.291265
 11
-64.242993
 21
-70.291265
  0
LINE
  8
別途部材
  6
CONTINUOUS
 10
-65.242993
 20
-70.291265
 11
-66.242993
 21
-71.291265
  0
LINE
  8
別途部材
  6
CONTINUOUS
 10
-64.242993
 20
-70.291265
 11
-65.242993
 21
-70.291265
  0
LINE
  8
別途部材
  6
CONTINUOUS
 10
-67.242993
 20
-71.291265
 11
-68.242993
 21
-70.291265
  0
LINE
  8
別途部材
  6
CONTINUOUS
 10
-69.242993
 20
-70.291265
 11
-70.242993
 21
-71.291265
  0
LINE
  8
別途部材
  6
CONTINUOUS
 10
-68.242993
 20
-70.291265
 11
-69.242993
 21
-70.291265
  0
LINE
  8
別途部材
  6
CONTINUOUS
 10
-71.242993
 20
-71.291265
 11
-72.242993
 21
-70.291265
  0
LINE
  8
別途部材
  6
CONTINUOUS
 10
-73.242993
 20
-70.291265
 11
-74.242993
 21
-71.291265
  0
LINE
  8
別途部材
  6
CONTINUOUS
 10
-72.242993
 20
-70.291265
 11
-73.242993
 21
-70.291265
  0
LINE
  8
別途部材
  6
CONTINUOUS
 10
-70.242993
 20
-71.291265
 11
-71.242993
 21
-71.291265
  0
LINE
  8
別途部材
  6
CONTINUOUS
 10
-66.242993
 20
-71.291265
 11
-67.242993
 21
-71.291265
  0
LINE
  8
別途部材
  6
CONTINUOUS
 10
-62.242993
 20
-71.291265
 11
-63.242993
 21
-71.291265
  0
LINE
  8
別途部材
  6
CONTINUOUS
 10
-58.242993
 20
-71.291265
 11
-59.242993
 21
-71.291265
  0
LINE
  8
別途部材
  6
CONTINUOUS
 10
-54.242993
 20
-71.291265
 11
-55.242993
 21
-71.291265
  0
LINE
  8
別途部材
  6
CONTINUOUS
 10
-50.242993
 20
-71.291265
 11
-51.242993
 21
-71.291265
  0
LINE
  8
別途部材
  6
CONTINUOUS
 10
-46.242993
 20
-71.291265
 11
-47.242993
 21
-71.291265
  0
LINE
  8
別途部材
  6
CONTINUOUS
 10
-42.242993
 20
-71.291265
 11
-43.242993
 21
-71.291265
  0
LINE
  8
別途部材
  6
CONTINUOUS
 10
-38.242993
 20
-71.291265
 11
-39.242993
 21
-71.291265
  0
LINE
  8
別途部材
  6
CONTINUOUS
 10
-34.242993
 20
-71.291265
 11
-35.242993
 21
-71.291265
  0
LINE
  8
別途部材
  6
CONTINUOUS
 10
-31.242993
 20
-71.291265
 11
-30.242993
 21
-71.291265
  0
LINE
  8
別途部材
  6
CONTINUOUS
 10
-75.242993
 20
-71.291265
 11
-76.242993
 21
-70.291265
  0
LINE
  8
別途部材
  6
CONTINUOUS
 10
-77.242993
 20
-70.291265
 11
-78.242993
 21
-71.291265
  0
LINE
  8
別途部材
  6
CONTINUOUS
 10
-76.242993
 20
-70.291265
 11
-77.242993
 21
-70.291265
  0
LINE
  8
別途部材
  6
CONTINUOUS
 10
-79.242993
 20
-71.291265
 11
-80.242993
 21
-70.291265
  0
LINE
  8
別途部材
  6
CONTINUOUS
 10
-81.242993
 20
-70.291265
 11
-82.242993
 21
-71.291265
  0
LINE
  8
別途部材
  6
CONTINUOUS
 10
-80.242993
 20
-70.291265
 11
-81.242993
 21
-70.291265
  0
LINE
  8
別途部材
  6
CONTINUOUS
 10
-83.242993
 20
-71.291265
 11
-84.242993
 21
-70.291265
  0
LINE
  8
別途部材
  6
CONTINUOUS
 10
-85.242993
 20
-70.291265
 11
-86.242993
 21
-71.291265
  0
LINE
  8
別途部材
  6
CONTINUOUS
 10
-84.242993
 20
-70.291265
 11
-85.242993
 21
-70.291265
  0
LINE
  8
別途部材
  6
CONTINUOUS
 10
-87.242993
 20
-71.291265
 11
-88.242993
 21
-70.291265
  0
LINE
  8
別途部材
  6
CONTINUOUS
 10
-89.242993
 20
-70.291265
 11
-90.242993
 21
-71.291265
  0
LINE
  8
別途部材
  6
CONTINUOUS
 10
-88.242993
 20
-70.291265
 11
-89.242993
 21
-70.291265
  0
LINE
  8
別途部材
  6
CONTINUOUS
 10
-91.242993
 20
-71.291265
 11
-92.242993
 21
-70.291265
  0
LINE
  8
別途部材
  6
CONTINUOUS
 10
-93.242993
 20
-70.291265
 11
-94.242993
 21
-71.291265
  0
LINE
  8
別途部材
  6
CONTINUOUS
 10
-92.242993
 20
-70.291265
 11
-93.242993
 21
-70.291265
  0
LINE
  8
別途部材
  6
CONTINUOUS
 10
-95.242993
 20
-71.291265
 11
-96.242993
 21
-70.291265
  0
LINE
  8
別途部材
  6
CONTINUOUS
 10
-97.242993
 20
-70.291265
 11
-98.242993
 21
-71.291265
  0
LINE
  8
別途部材
  6
CONTINUOUS
 10
-96.242993
 20
-70.291265
 11
-97.242993
 21
-70.291265
  0
LINE
  8
別途部材
  6
CONTINUOUS
 10
-99.242993
 20
-71.291265
 11
-100.242993
 21
-70.291265
  0
LINE
  8
別途部材
  6
CONTINUOUS
 10
-101.242993
 20
-70.291265
 11
-102.242993
 21
-71.291265
  0
LINE
  8
別途部材
  6
CONTINUOUS
 10
-100.242993
 20
-70.291265
 11
-101.242993
 21
-70.291265
  0
LINE
  8
別途部材
  6
CONTINUOUS
 10
-103.242993
 20
-71.291265
 11
-104.242993
 21
-70.291265
  0
LINE
  8
別途部材
  6
CONTINUOUS
 10
-105.242993
 20
-70.291265
 11
-106.242993
 21
-71.291265
  0
LINE
  8
別途部材
  6
CONTINUOUS
 10
-104.242993
 20
-70.291265
 11
-105.242993
 21
-70.291265
  0
LINE
  8
別途部材
  6
CONTINUOUS
 10
-102.242993
 20
-71.291265
 11
-103.242993
 21
-71.291265
  0
LINE
  8
別途部材
  6
CONTINUOUS
 10
-98.242993
 20
-71.291265
 11
-99.242993
 21
-71.291265
  0
LINE
  8
別途部材
  6
CONTINUOUS
 10
-94.242993
 20
-71.291265
 11
-95.242993
 21
-71.291265
  0
LINE
  8
別途部材
  6
CONTINUOUS
 10
-90.242993
 20
-71.291265
 11
-91.242993
 21
-71.291265
  0
LINE
  8
別途部材
  6
CONTINUOUS
 10
-86.242993
 20
-71.291265
 11
-87.242993
 21
-71.291265
  0
LINE
  8
別途部材
  6
CONTINUOUS
 10
-82.242993
 20
-71.291265
 11
-83.242993
 21
-71.291265
  0
LINE
  8
別途部材
  6
CONTINUOUS
 10
-78.242993
 20
-71.291265
 11
-79.242993
 21
-71.291265
  0
LINE
  8
別途部材
  6
CONTINUOUS
 10
-74.242993
 20
-71.291265
 11
-75.242993
 21
-71.291265
  0
LINE
  8
別途部材
  6
CONTINUOUS
 10
-106.242993
 20
-71.291265
 11
-106.242993
 21
-79.624597
  0
LINE
  8
別途部材
  6
CONTINUOUS
 10
-104.242993
 20
-70.291265
 11
-104.242993
 21
-79.624597
  0
LINE
  8
別途部材
  6
CONTINUOUS
 10
-105.242993
 20
-70.291265
 11
-105.242993
 21
-79.624597
  0
LINE
  8
別途部材
  6
CONTINUOUS
 10
-102.242993
 20
-71.291265
 11
-102.242993
 21
-79.624597
  0
LINE
  8
別途部材
  6
CONTINUOUS
 10
-103.242993
 20
-71.291265
 11
-103.242993
 21
-79.624597
  0
LINE
  8
別途部材
  6
CONTINUOUS
 10
-101.242993
 20
-70.291265
 11
-101.242993
 21
-79.624597
  0
LINE
  8
別途部材
  6
CONTINUOUS
 10
-99.242993
 20
-71.291265
 11
-99.242993
 21
-79.624597
  0
LINE
  8
別途部材
  6
CONTINUOUS
 10
-100.242993
 20
-70.291265
 11
-100.242993
 21
-79.624597
  0
LINE
  8
別途部材
  6
CONTINUOUS
 10
-98.242993
 20
-71.291265
 11
-98.242993
 21
-79.624597
  0
LINE
  8
別途部材
  6
CONTINUOUS
 10
-97.242993
 20
-70.291265
 11
-97.242993
 21
-79.624597
  0
LINE
  8
別途部材
  6
CONTINUOUS
 10
-95.242993
 20
-71.291265
 11
-95.242993
 21
-79.624597
  0
LINE
  8
別途部材
  6
CONTINUOUS
 10
-96.242993
 20
-70.291265
 11
-96.242993
 21
-79.624597
  0
LINE
  8
別途部材
  6
CONTINUOUS
 10
-93.242993
 20
-70.291265
 11
-93.242993
 21
-79.624597
  0
LINE
  8
別途部材
  6
CONTINUOUS
 10
-94.242993
 20
-71.291265
 11
-94.242993
 21
-79.624597
  0
LINE
  8
別途部材
  6
CONTINUOUS
 10
-91.242993
 20
-71.291265
 11
-91.242993
 21
-79.624597
  0
LINE
  8
別途部材
  6
CONTINUOUS
 10
-92.242993
 20
-70.291265
 11
-92.242993
 21
-79.624597
  0
LINE
  8
別途部材
  6
CONTINUOUS
 10
-90.242993
 20
-71.291265
 11
-90.242993
 21
-79.624597
  0
LINE
  8
別途部材
  6
CONTINUOUS
 10
-88.242993
 20
-70.291265
 11
-88.242993
 21
-79.624597
  0
LINE
  8
別途部材
  6
CONTINUOUS
 10
-89.242993
 20
-70.291265
 11
-89.242993
 21
-79.624597
  0
LINE
  8
別途部材
  6
CONTINUOUS
 10
-87.242993
 20
-71.291265
 11
-87.242993
 21
-79.624597
  0
LINE
  8
別途部材
  6
CONTINUOUS
 10
-86.242993
 20
-71.291265
 11
-86.242993
 21
-79.624597
  0
LINE
  8
別途部材
  6
CONTINUOUS
 10
-85.242993
 20
-70.291265
 11
-85.242993
 21
-79.624597
  0
LINE
  8
別途部材
  6
CONTINUOUS
 10
-84.242993
 20
-70.291265
 11
-84.242993
 21
-79.624597
  0
LINE
  8
別途部材
  6
CONTINUOUS
 10
-80.242993
 20
-70.291265
 11
-80.242993
 21
-79.624597
  0
LINE
  8
別途部材
  6
CONTINUOUS
 10
-73.242993
 20
-70.291265
 11
-73.242993
 21
-79.624597
  0
LINE
  8
別途部材
  6
CONTINUOUS
 10
-69.242993
 20
-70.291265
 11
-69.242993
 21
-79.624597
  0
LINE
  8
別途部材
  6
CONTINUOUS
 10
-67.242993
 20
-71.291265
 11
-67.242993
 21
-79.624597
  0
LINE
  8
別途部材
  6
CONTINUOUS
 10
-72.242993
 20
-70.291265
 11
-72.242993
 21
-79.624597
  0
LINE
  8
別途部材
  6
CONTINUOUS
 10
-76.242993
 20
-70.291265
 11
-76.242993
 21
-79.624597
  0
LINE
  8
別途部材
  6
CONTINUOUS
 10
-78.242993
 20
-71.291265
 11
-78.242993
 21
-79.624597
  0
LINE
  8
別途部材
  6
CONTINUOUS
 10
-81.242993
 20
-70.291265
 11
-81.242993
 21
-79.624597
  0
LINE
  8
別途部材
  6
CONTINUOUS
 10
-82.242993
 20
-71.291265
 11
-82.242993
 21
-79.624597
  0
LINE
  8
別途部材
  6
CONTINUOUS
 10
-83.242993
 20
-71.291265
 11
-83.242993
 21
-79.624597
  0
LINE
  8
別途部材
  6
CONTINUOUS
 10
-79.242993
 20
-71.291265
 11
-79.242993
 21
-79.624597
  0
LINE
  8
別途部材
  6
CONTINUOUS
 10
-77.242993
 20
-70.291265
 11
-77.242993
 21
-79.624597
  0
LINE
  8
別途部材
  6
CONTINUOUS
 10
-75.242993
 20
-71.291265
 11
-75.242993
 21
-79.624597
  0
LINE
  8
別途部材
  6
CONTINUOUS
 10
-74.242993
 20
-71.291265
 11
-74.242993
 21
-79.624597
  0
LINE
  8
別途部材
  6
CONTINUOUS
 10
-71.242993
 20
-71.291265
 11
-71.242993
 21
-79.624597
  0
LINE
  8
別途部材
  6
CONTINUOUS
 10
-70.242993
 20
-71.291265
 11
-70.242993
 21
-79.624597
  0
LINE
  8
別途部材
  6
CONTINUOUS
 10
-68.242993
 20
-70.291265
 11
-68.242993
 21
-79.624597
  0
LINE
  8
別途部材
  6
CONTINUOUS
 10
-65.242993
 20
-70.291265
 11
-65.242993
 21
-79.624597
  0
LINE
  8
別途部材
  6
CONTINUOUS
 10
-66.242993
 20
-71.291265
 11
-66.242993
 21
-79.624597
  0
LINE
  8
別途部材
  6
CONTINUOUS
 10
-64.242993
 20
-70.291265
 11
-64.242993
 21
-79.624597
  0
LINE
  8
別途部材
  6
CONTINUOUS
 10
-63.242993
 20
-71.291265
 11
-63.242993
 21
-79.624597
  0
LINE
  8
別途部材
  6
CONTINUOUS
 10
-62.242993
 20
-71.291265
 11
-62.242993
 21
-79.624597
  0
LINE
  8
別途部材
  6
CONTINUOUS
 10
-61.242993
 20
-70.291265
 11
-61.242993
 21
-79.624597
  0
LINE
  8
別途部材
  6
CONTINUOUS
 10
-59.242993
 20
-71.291265
 11
-59.242993
 21
-79.624597
  0
LINE
  8
別途部材
  6
CONTINUOUS
 10
-60.242993
 20
-70.291265
 11
-60.242993
 21
-79.624597
  0
LINE
  8
別途部材
  6
CONTINUOUS
 10
-57.242993
 20
-70.291265
 11
-57.242993
 21
-79.624597
  0
LINE
  8
別途部材
  6
CONTINUOUS
 10
-58.242993
 20
-71.291265
 11
-58.242993
 21
-79.624597
  0
LINE
  8
別途部材
  6
CONTINUOUS
 10
-54.242993
 20
-71.291265
 11
-54.242993
 21
-79.624597
  0
LINE
  8
別途部材
  6
CONTINUOUS
 10
-53.242993
 20
-70.291265
 11
-53.242993
 21
-79.624597
  0
LINE
  8
別途部材
  6
CONTINUOUS
 10
-52.242993
 20
-70.291265
 11
-52.242993
 21
-79.624597
  0
LINE
  8
別途部材
  6
CONTINUOUS
 10
-55.242993
 20
-71.291265
 11
-55.242993
 21
-79.624597
  0
LINE
  8
別途部材
  6
CONTINUOUS
 10
-56.242993
 20
-70.291265
 11
-56.242993
 21
-79.624597
  0
LINE
  8
別途部材
  6
CONTINUOUS
 10
-48.242993
 20
-70.291265
 11
-48.242993
 21
-79.624597
  0
LINE
  8
別途部材
  6
CONTINUOUS
 10
-50.242993
 20
-71.291265
 11
-50.242993
 21
-79.624597
  0
LINE
  8
別途部材
  6
CONTINUOUS
 10
-51.242993
 20
-71.291265
 11
-51.242993
 21
-79.624597
  0
LINE
  8
別途部材
  6
CONTINUOUS
 10
-49.242993
 20
-70.291265
 11
-49.242993
 21
-79.624597
  0
LINE
  8
別途部材
  6
CONTINUOUS
 10
-47.242993
 20
-71.291265
 11
-47.242993
 21
-79.624597
  0
LINE
  8
別途部材
  6
CONTINUOUS
 10
-45.242993
 20
-70.291265
 11
-45.242993
 21
-79.624597
  0
LINE
  8
別途部材
  6
CONTINUOUS
 10
-44.242993
 20
-70.291265
 11
-44.242993
 21
-79.624597
  0
LINE
  8
別途部材
  6
CONTINUOUS
 10
-42.242993
 20
-71.291265
 11
-42.242993
 21
-79.624597
  0
LINE
  8
別途部材
  6
CONTINUOUS
 10
-43.242993
 20
-71.291265
 11
-43.242993
 21
-79.624597
  0
LINE
  8
別途部材
  6
CONTINUOUS
 10
-46.242993
 20
-71.291265
 11
-46.242993
 21
-79.624597
  0
LINE
  8
別途部材
  6
CONTINUOUS
 10
-41.242993
 20
-70.291265
 11
-41.242993
 21
-79.624597
  0
LINE
  8
別途部材
  6
CONTINUOUS
 10
-39.242993
 20
-71.291265
 11
-39.242993
 21
-79.624597
  0
LINE
  8
別途部材
  6
CONTINUOUS
 10
-40.242993
 20
-70.291265
 11
-40.242993
 21
-79.624597
  0
LINE
  8
別途部材
  6
CONTINUOUS
 10
-38.242993
 20
-71.291265
 11
-38.242993
 21
-79.624597
  0
LINE
  8
別途部材
  6
CONTINUOUS
 10
-37.242993
 20
-70.291265
 11
-37.242993
 21
-79.624597
  0
LINE
  8
別途部材
  6
CONTINUOUS
 10
-35.242993
 20
-71.291265
 11
-35.242993
 21
-79.624597
  0
LINE
  8
別途部材
  6
CONTINUOUS
 10
-36.242993
 20
-70.291265
 11
-36.242993
 21
-79.624597
  0
LINE
  8
別途部材
  6
CONTINUOUS
 10
-34.242993
 20
-71.291265
 11
-34.242993
 21
-79.624597
  0
LINE
  8
別途部材
  6
CONTINUOUS
 10
-33.242993
 20
-70.291265
 11
-33.242993
 21
-79.624597
  0
LINE
  8
別途部材
  6
CONTINUOUS
 10
-31.242993
 20
-71.291265
 11
-31.242993
 21
-79.624597
  0
LINE
  8
別途部材
  6
CONTINUOUS
 10
-32.242993
 20
-70.291265
 11
-32.242993
 21
-79.624597
  0
LINE
  8
別途部材
  6
CONTINUOUS
 10
-30.242993
 20
-71.291265
 11
-30.242993
 21
-79.624597
  0
LINE
  8
別途部材
  6
CONTINUOUS
 10
-29.242993
 20
-70.291265
 11
-29.242993
 21
-79.624597
  0
LINE
  8
別途部材
  6
CONTINUOUS
 10
-107.242993
 20
-71.291265
 11
-108.242993
 21
-70.291265
  0
LINE
  8
別途部材
  6
CONTINUOUS
 10
-109.242993
 20
-70.291265
 11
-110.242993
 21
-71.291265
  0
LINE
  8
別途部材
  6
CONTINUOUS
 10
-108.242993
 20
-70.291265
 11
-109.242993
 21
-70.291265
  0
LINE
  8
別途部材
  6
CONTINUOUS
 10
-106.242993
 20
-71.291265
 11
-107.242993
 21
-71.291265
  0
LINE
  8
別途部材
  6
CONTINUOUS
 10
-110.242993
 20
-71.291265
 11
-110.242993
 21
-79.624597
  0
LINE
  8
別途部材
  6
CONTINUOUS
 10
-108.242993
 20
-70.291265
 11
-108.242993
 21
-79.624597
  0
LINE
  8
別途部材
  6
CONTINUOUS
 10
-109.242993
 20
-70.291265
 11
-109.242993
 21
-79.624597
  0
LINE
  8
別途部材
  6
CONTINUOUS
 10
-107.242993
 20
-71.291265
 11
-107.242993
 21
-79.624597
  0
LINE
  8
別途部材
  6
CONTINUOUS
 10
-111.242993
 20
-71.291265
 11
-112.242993
 21
-70.291265
  0
LINE
  8
別途部材
  6
CONTINUOUS
 10
-113.242993
 20
-70.291265
 11
-114.242993
 21
-71.291265
  0
LINE
  8
別途部材
  6
CONTINUOUS
 10
-112.242993
 20
-70.291265
 11
-113.242993
 21
-70.291265
  0
LINE
  8
別途部材
  6
CONTINUOUS
 10
-110.242993
 20
-71.291265
 11
-111.242993
 21
-71.291265
  0
LINE
  8
別途部材
  6
CONTINUOUS
 10
-114.242993
 20
-71.291265
 11
-114.242993
 21
-79.624597
  0
LINE
  8
別途部材
  6
CONTINUOUS
 10
-112.242993
 20
-70.291265
 11
-112.242993
 21
-79.624597
  0
LINE
  8
別途部材
  6
CONTINUOUS
 10
-113.242993
 20
-70.291265
 11
-113.242993
 21
-79.624597
  0
LINE
  8
別途部材
  6
CONTINUOUS
 10
-111.242993
 20
-71.291265
 11
-111.242993
 21
-79.624597
  0
ARC
  8
別途部材
  6
CONTINUOUS
 10
-113.742989
 20
-88.957929
 40
17.666667
 50
91.621805
 51
148.109204
  0
LINE
  8
別途部材
  6
CONTINUOUS
 62
    96
 10
72.923675
 20
-79.624597
 11
73.323675
 21
-80.624597
  0
LINE
  8
別途部材
  6
CONTINUOUS
 62
    96
 10
72.923675
 20
-79.624597
 11
-28.742993
 21
-79.624597
  0
LINE
  8
別途部材
  6
CONTINUOUS
 10
73.323675
 20
-80.624597
 11
-28.742993
 21
-80.624597
  0
LINE
  8
別途部材
  6
CONTINUOUS
 10
-28.242993
 20
-70.291265
 11
-27.242993
 21
-71.291265
  0
LINE
  8
別途部材
  6
CONTINUOUS
 10
-26.242993
 20
-71.291265
 11
-25.242993
 21
-70.291265
  0
LINE
  8
別途部材
  6
CONTINUOUS
 10
-24.242993
 20
-70.291265
 11
-23.242993
 21
-71.291265
  0
LINE
  8
別途部材
  6
CONTINUOUS
 10
-25.242993
 20
-70.291265
 11
-24.242993
 21
-70.291265
  0
LINE
  8
別途部材
  6
CONTINUOUS
 10
-28.242993
 20
-70.291265
 11
-28.742993
 21
-70.291265
  0
LINE
  8
別途部材
  6
CONTINUOUS
 10
-22.242993
 20
-71.291265
 11
-21.242993
 21
-70.291265
  0
LINE
  8
別途部材
  6
CONTINUOUS
 10
-20.242993
 20
-70.291265
 11
-19.242993
 21
-71.291265
  0
LINE
  8
別途部材
  6
CONTINUOUS
 10
-21.242993
 20
-70.291265
 11
-20.242993
 21
-70.291265
  0
LINE
  8
別途部材
  6
CONTINUOUS
 10
-18.242993
 20
-71.291265
 11
-17.242993
 21
-70.291265
  0
LINE
  8
別途部材
  6
CONTINUOUS
 10
-16.242993
 20
-70.291265
 11
-15.242993
 21
-71.291265
  0
LINE
  8
別途部材
  6
CONTINUOUS
 10
-17.242993
 20
-70.291265
 11
-16.242993
 21
-70.291265
  0
LINE
  8
別途部材
  6
CONTINUOUS
 10
-14.242993
 20
-71.291265
 11
-13.242993
 21
-70.291265
  0
LINE
  8
別途部材
  6
CONTINUOUS
 10
-12.242993
 20
-70.291265
 11
-11.242993
 21
-71.291265
  0
LINE
  8
別途部材
  6
CONTINUOUS
 10
-13.242993
 20
-70.291265
 11
-12.242993
 21
-70.291265
  0
LINE
  8
別途部材
  6
CONTINUOUS
 10
-10.242993
 20
-71.291265
 11
-9.242993
 21
-70.291265
  0
LINE
  8
別途部材
  6
CONTINUOUS
 10
-8.242993
 20
-70.291265
 11
-7.242993
 21
-71.291265
  0
LINE
  8
別途部材
  6
CONTINUOUS
 10
-9.242993
 20
-70.291265
 11
-8.242993
 21
-70.291265
  0
LINE
  8
別途部材
  6
CONTINUOUS
 10
-6.242993
 20
-71.291265
 11
-5.242993
 21
-70.291265
  0
LINE
  8
別途部材
  6
CONTINUOUS
 10
-4.242993
 20
-70.291265
 11
-3.242993
 21
-71.291265
  0
LINE
  8
別途部材
  6
CONTINUOUS
 10
-5.242993
 20
-70.291265
 11
-4.242993
 21
-70.291265
  0
LINE
  8
別途部材
  6
CONTINUOUS
 10
-2.242993
 20
-71.291265
 11
-1.242993
 21
-70.291265
  0
LINE
  8
別途部材
  6
CONTINUOUS
 10
-0.242993
 20
-70.291265
 11
0.757007
 21
-71.291265
  0
LINE
  8
別途部材
  6
CONTINUOUS
 10
-1.242993
 20
-70.291265
 11
-0.242993
 21
-70.291265
  0
LINE
  8
別途部材
  6
CONTINUOUS
 10
1.757007
 20
-71.291265
 11
2.757007
 21
-70.291265
  0
LINE
  8
別途部材
  6
CONTINUOUS
 10
3.757007
 20
-70.291265
 11
4.757007
 21
-71.291265
  0
LINE
  8
別途部材
  6
CONTINUOUS
 10
2.757007
 20
-70.291265
 11
3.757007
 21
-70.291265
  0
LINE
  8
別途部材
  6
CONTINUOUS
 10
5.757007
 20
-71.291265
 11
6.757007
 21
-70.291265
  0
LINE
  8
別途部材
  6
CONTINUOUS
 10
7.757007
 20
-70.291265
 11
8.757007
 21
-71.291265
  0
LINE
  8
別途部材
  6
CONTINUOUS
 10
6.757007
 20
-70.291265
 11
7.757007
 21
-70.291265
  0
LINE
  8
別途部材
  6
CONTINUOUS
 10
9.757007
 20
-71.291265
 11
10.757007
 21
-70.291265
  0
LINE
  8
別途部材
  6
CONTINUOUS
 10
11.757007
 20
-70.291265
 11
12.757007
 21
-71.291265
  0
LINE
  8
別途部材
  6
CONTINUOUS
 10
10.757007
 20
-70.291265
 11
11.757007
 21
-70.291265
  0
LINE
  8
別途部材
  6
CONTINUOUS
 10
13.757007
 20
-71.291265
 11
14.757007
 21
-70.291265
  0
LINE
  8
別途部材
  6
CONTINUOUS
 10
15.757007
 20
-70.291265
 11
16.757007
 21
-71.291265
  0
LINE
  8
別途部材
  6
CONTINUOUS
 10
14.757007
 20
-70.291265
 11
15.757007
 21
-70.291265
  0
LINE
  8
別途部材
  6
CONTINUOUS
 10
12.757007
 20
-71.291265
 11
13.757007
 21
-71.291265
  0
LINE
  8
別途部材
  6
CONTINUOUS
 10
8.757007
 20
-71.291265
 11
9.757007
 21
-71.291265
  0
LINE
  8
別途部材
  6
CONTINUOUS
 10
4.757007
 20
-71.291265
 11
5.757007
 21
-71.291265
  0
LINE
  8
別途部材
  6
CONTINUOUS
 10
0.757007
 20
-71.291265
 11
1.757007
 21
-71.291265
  0
LINE
  8
別途部材
  6
CONTINUOUS
 10
-3.242993
 20
-71.291265
 11
-2.242993
 21
-71.291265
  0
LINE
  8
別途部材
  6
CONTINUOUS
 10
-7.242993
 20
-71.291265
 11
-6.242993
 21
-71.291265
  0
LINE
  8
別途部材
  6
CONTINUOUS
 10
-11.242993
 20
-71.291265
 11
-10.242993
 21
-71.291265
  0
LINE
  8
別途部材
  6
CONTINUOUS
 10
-15.242993
 20
-71.291265
 11
-14.242993
 21
-71.291265
  0
LINE
  8
別途部材
  6
CONTINUOUS
 10
-19.242993
 20
-71.291265
 11
-18.242993
 21
-71.291265
  0
LINE
  8
別途部材
  6
CONTINUOUS
 10
-23.242993
 20
-71.291265
 11
-22.242993
 21
-71.291265
  0
LINE
  8
別途部材
  6
CONTINUOUS
 10
-26.242993
 20
-71.291265
 11
-27.242993
 21
-71.291265
  0
LINE
  8
別途部材
  6
CONTINUOUS
 10
17.757007
 20
-71.291265
 11
18.757007
 21
-70.291265
  0
LINE
  8
別途部材
  6
CONTINUOUS
 10
19.757007
 20
-70.291265
 11
20.757007
 21
-71.291265
  0
LINE
  8
別途部材
  6
CONTINUOUS
 10
18.757007
 20
-70.291265
 11
19.757007
 21
-70.291265
  0
LINE
  8
別途部材
  6
CONTINUOUS
 10
21.757007
 20
-71.291265
 11
22.757007
 21
-70.291265
  0
LINE
  8
別途部材
  6
CONTINUOUS
 10
23.757007
 20
-70.291265
 11
24.757007
 21
-71.291265
  0
LINE
  8
別途部材
  6
CONTINUOUS
 10
22.757007
 20
-70.291265
 11
23.757007
 21
-70.291265
  0
LINE
  8
別途部材
  6
CONTINUOUS
 10
25.757007
 20
-71.291265
 11
26.757007
 21
-70.291265
  0
LINE
  8
別途部材
  6
CONTINUOUS
 10
27.757007
 20
-70.291265
 11
28.757007
 21
-71.291265
  0
LINE
  8
別途部材
  6
CONTINUOUS
 10
26.757007
 20
-70.291265
 11
27.757007
 21
-70.291265
  0
LINE
  8
別途部材
  6
CONTINUOUS
 10
29.757007
 20
-71.291265
 11
30.757007
 21
-70.291265
  0
LINE
  8
別途部材
  6
CONTINUOUS
 10
31.757007
 20
-70.291265
 11
32.757007
 21
-71.291265
  0
LINE
  8
別途部材
  6
CONTINUOUS
 10
30.757007
 20
-70.291265
 11
31.757007
 21
-70.291265
  0
LINE
  8
別途部材
  6
CONTINUOUS
 10
33.757007
 20
-71.291265
 11
34.757007
 21
-70.291265
  0
LINE
  8
別途部材
  6
CONTINUOUS
 10
35.757007
 20
-70.291265
 11
36.757007
 21
-71.291265
  0
LINE
  8
別途部材
  6
CONTINUOUS
 10
34.757007
 20
-70.291265
 11
35.757007
 21
-70.291265
  0
LINE
  8
別途部材
  6
CONTINUOUS
 10
37.757007
 20
-71.291265
 11
38.757007
 21
-70.291265
  0
LINE
  8
別途部材
  6
CONTINUOUS
 10
39.757007
 20
-70.291265
 11
40.757007
 21
-71.291265
  0
LINE
  8
別途部材
  6
CONTINUOUS
 10
38.757007
 20
-70.291265
 11
39.757007
 21
-70.291265
  0
LINE
  8
別途部材
  6
CONTINUOUS
 10
41.757007
 20
-71.291265
 11
42.757007
 21
-70.291265
  0
LINE
  8
別途部材
  6
CONTINUOUS
 10
43.757007
 20
-70.291265
 11
44.757007
 21
-71.291265
  0
LINE
  8
別途部材
  6
CONTINUOUS
 10
42.757007
 20
-70.291265
 11
43.757007
 21
-70.291265
  0
LINE
  8
別途部材
  6
CONTINUOUS
 10
45.757007
 20
-71.291265
 11
46.757007
 21
-70.291265
  0
LINE
  8
別途部材
  6
CONTINUOUS
 10
47.757007
 20
-70.291265
 11
48.757007
 21
-71.291265
  0
LINE
  8
別途部材
  6
CONTINUOUS
 10
46.757007
 20
-70.291265
 11
47.757007
 21
-70.291265
  0
LINE
  8
別途部材
  6
CONTINUOUS
 10
44.757007
 20
-71.291265
 11
45.757007
 21
-71.291265
  0
LINE
  8
別途部材
  6
CONTINUOUS
 10
40.757007
 20
-71.291265
 11
41.757007
 21
-71.291265
  0
LINE
  8
別途部材
  6
CONTINUOUS
 10
36.757007
 20
-71.291265
 11
37.757007
 21
-71.291265
  0
LINE
  8
別途部材
  6
CONTINUOUS
 10
32.757007
 20
-71.291265
 11
33.757007
 21
-71.291265
  0
LINE
  8
別途部材
  6
CONTINUOUS
 10
28.757007
 20
-71.291265
 11
29.757007
 21
-71.291265
  0
LINE
  8
別途部材
  6
CONTINUOUS
 10
24.757007
 20
-71.291265
 11
25.757007
 21
-71.291265
  0
LINE
  8
別途部材
  6
CONTINUOUS
 10
20.757007
 20
-71.291265
 11
21.757007
 21
-71.291265
  0
LINE
  8
別途部材
  6
CONTINUOUS
 10
16.757007
 20
-71.291265
 11
17.757007
 21
-71.291265
  0
LINE
  8
別途部材
  6
CONTINUOUS
 10
48.757007
 20
-71.291265
 11
48.757007
 21
-79.624597
  0
LINE
  8
別途部材
  6
CONTINUOUS
 10
46.757007
 20
-70.291265
 11
46.757007
 21
-79.624597
  0
LINE
  8
別途部材
  6
CONTINUOUS
 10
47.757007
 20
-70.291265
 11
47.757007
 21
-79.624597
  0
LINE
  8
別途部材
  6
CONTINUOUS
 10
44.757007
 20
-71.291265
 11
44.757007
 21
-79.624597
  0
LINE
  8
別途部材
  6
CONTINUOUS
 10
45.757007
 20
-71.291265
 11
45.757007
 21
-79.624597
  0
LINE
  8
別途部材
  6
CONTINUOUS
 10
43.757007
 20
-70.291265
 11
43.757007
 21
-79.624597
  0
LINE
  8
別途部材
  6
CONTINUOUS
 10
41.757007
 20
-71.291265
 11
41.757007
 21
-79.624597
  0
LINE
  8
別途部材
  6
CONTINUOUS
 10
42.757007
 20
-70.291265
 11
42.757007
 21
-79.624597
  0
LINE
  8
別途部材
  6
CONTINUOUS
 10
40.757007
 20
-71.291265
 11
40.757007
 21
-79.624597
  0
LINE
  8
別途部材
  6
CONTINUOUS
 10
39.757007
 20
-70.291265
 11
39.757007
 21
-79.624597
  0
LINE
  8
別途部材
  6
CONTINUOUS
 10
37.757007
 20
-71.291265
 11
37.757007
 21
-79.624597
  0
LINE
  8
別途部材
  6
CONTINUOUS
 10
38.757007
 20
-70.291265
 11
38.757007
 21
-79.624597
  0
LINE
  8
別途部材
  6
CONTINUOUS
 10
35.757007
 20
-70.291265
 11
35.757007
 21
-79.624597
  0
LINE
  8
別途部材
  6
CONTINUOUS
 10
36.757007
 20
-71.291265
 11
36.757007
 21
-79.624597
  0
LINE
  8
別途部材
  6
CONTINUOUS
 10
33.757007
 20
-71.291265
 11
33.757007
 21
-79.624597
  0
LINE
  8
別途部材
  6
CONTINUOUS
 10
34.757007
 20
-70.291265
 11
34.757007
 21
-79.624597
  0
LINE
  8
別途部材
  6
CONTINUOUS
 10
32.757007
 20
-71.291265
 11
32.757007
 21
-79.624597
  0
LINE
  8
別途部材
  6
CONTINUOUS
 10
30.757007
 20
-70.291265
 11
30.757007
 21
-79.624597
  0
LINE
  8
別途部材
  6
CONTINUOUS
 10
31.757007
 20
-70.291265
 11
31.757007
 21
-79.624597
  0
LINE
  8
別途部材
  6
CONTINUOUS
 10
29.757007
 20
-71.291265
 11
29.757007
 21
-79.624597
  0
LINE
  8
別途部材
  6
CONTINUOUS
 10
28.757007
 20
-71.291265
 11
28.757007
 21
-79.624597
  0
LINE
  8
別途部材
  6
CONTINUOUS
 10
27.757007
 20
-70.291265
 11
27.757007
 21
-79.624597
  0
LINE
  8
別途部材
  6
CONTINUOUS
 10
26.757007
 20
-70.291265
 11
26.757007
 21
-79.624597
  0
LINE
  8
別途部材
  6
CONTINUOUS
 10
22.757007
 20
-70.291265
 11
22.757007
 21
-79.624597
  0
LINE
  8
別途部材
  6
CONTINUOUS
 10
15.757007
 20
-70.291265
 11
15.757007
 21
-79.624597
  0
LINE
  8
別途部材
  6
CONTINUOUS
 10
11.757007
 20
-70.291265
 11
11.757007
 21
-79.624597
  0
LINE
  8
別途部材
  6
CONTINUOUS
 10
9.757007
 20
-71.291265
 11
9.757007
 21
-79.624597
  0
LINE
  8
別途部材
  6
CONTINUOUS
 10
14.757007
 20
-70.291265
 11
14.757007
 21
-79.624597
  0
LINE
  8
別途部材
  6
CONTINUOUS
 10
18.757007
 20
-70.291265
 11
18.757007
 21
-79.624597
  0
LINE
  8
別途部材
  6
CONTINUOUS
 10
20.757007
 20
-71.291265
 11
20.757007
 21
-79.624597
  0
LINE
  8
別途部材
  6
CONTINUOUS
 10
23.757007
 20
-70.291265
 11
23.757007
 21
-79.624597
  0
LINE
  8
別途部材
  6
CONTINUOUS
 10
24.757007
 20
-71.291265
 11
24.757007
 21
-79.624597
  0
LINE
  8
別途部材
  6
CONTINUOUS
 10
25.757007
 20
-71.291265
 11
25.757007
 21
-79.624597
  0
LINE
  8
別途部材
  6
CONTINUOUS
 10
21.757007
 20
-71.291265
 11
21.757007
 21
-79.624597
  0
LINE
  8
別途部材
  6
CONTINUOUS
 10
19.757007
 20
-70.291265
 11
19.757007
 21
-79.624597
  0
LINE
  8
別途部材
  6
CONTINUOUS
 10
17.757007
 20
-71.291265
 11
17.757007
 21
-79.624597
  0
LINE
  8
別途部材
  6
CONTINUOUS
 10
16.757007
 20
-71.291265
 11
16.757007
 21
-79.624597
  0
LINE
  8
別途部材
  6
CONTINUOUS
 10
13.757007
 20
-71.291265
 11
13.757007
 21
-79.624597
  0
LINE
  8
別途部材
  6
CONTINUOUS
 10
12.757007
 20
-71.291265
 11
12.757007
 21
-79.624597
  0
LINE
  8
別途部材
  6
CONTINUOUS
 10
10.757007
 20
-70.291265
 11
10.757007
 21
-79.624597
  0
LINE
  8
別途部材
  6
CONTINUOUS
 10
7.757007
 20
-70.291265
 11
7.757007
 21
-79.624597
  0
LINE
  8
別途部材
  6
CONTINUOUS
 10
8.757007
 20
-71.291265
 11
8.757007
 21
-79.624597
  0
LINE
  8
別途部材
  6
CONTINUOUS
 10
6.757007
 20
-70.291265
 11
6.757007
 21
-79.624597
  0
LINE
  8
別途部材
  6
CONTINUOUS
 10
5.757007
 20
-71.291265
 11
5.757007
 21
-79.624597
  0
LINE
  8
別途部材
  6
CONTINUOUS
 10
4.757007
 20
-71.291265
 11
4.757007
 21
-79.624597
  0
LINE
  8
別途部材
  6
CONTINUOUS
 10
3.757007
 20
-70.291265
 11
3.757007
 21
-79.624597
  0
LINE
  8
別途部材
  6
CONTINUOUS
 10
1.757007
 20
-71.291265
 11
1.757007
 21
-79.624597
  0
LINE
  8
別途部材
  6
CONTINUOUS
 10
2.757007
 20
-70.291265
 11
2.757007
 21
-79.624597
  0
LINE
  8
別途部材
  6
CONTINUOUS
 10
-0.242993
 20
-70.291265
 11
-0.242993
 21
-79.624597
  0
LINE
  8
別途部材
  6
CONTINUOUS
 10
0.757007
 20
-71.291265
 11
0.757007
 21
-79.624597
  0
LINE
  8
別途部材
  6
CONTINUOUS
 10
-3.242993
 20
-71.291265
 11
-3.242993
 21
-79.624597
  0
LINE
  8
別途部材
  6
CONTINUOUS
 10
-4.242993
 20
-70.291265
 11
-4.242993
 21
-79.624597
  0
LINE
  8
別途部材
  6
CONTINUOUS
 10
-5.242993
 20
-70.291265
 11
-5.242993
 21
-79.624597
  0
LINE
  8
別途部材
  6
CONTINUOUS
 10
-2.242993
 20
-71.291265
 11
-2.242993
 21
-79.624597
  0
LINE
  8
別途部材
  6
CONTINUOUS
 10
-1.242993
 20
-70.291265
 11
-1.242993
 21
-79.624597
  0
LINE
  8
別途部材
  6
CONTINUOUS
 10
-9.242993
 20
-70.291265
 11
-9.242993
 21
-79.624597
  0
LINE
  8
別途部材
  6
CONTINUOUS
 10
-7.242993
 20
-71.291265
 11
-7.242993
 21
-79.624597
  0
LINE
  8
別途部材
  6
CONTINUOUS
 10
-6.242993
 20
-71.291265
 11
-6.242993
 21
-79.624597
  0
LINE
  8
別途部材
  6
CONTINUOUS
 10
-8.242993
 20
-70.291265
 11
-8.242993
 21
-79.624597
  0
LINE
  8
別途部材
  6
CONTINUOUS
 10
-10.242993
 20
-71.291265
 11
-10.242993
 21
-79.624597
  0
LINE
  8
別途部材
  6
CONTINUOUS
 10
-12.242993
 20
-70.291265
 11
-12.242993
 21
-79.624597
  0
LINE
  8
別途部材
  6
CONTINUOUS
 10
-13.242993
 20
-70.291265
 11
-13.242993
 21
-79.624597
  0
LINE
  8
別途部材
  6
CONTINUOUS
 10
-15.242993
 20
-71.291265
 11
-15.242993
 21
-79.624597
  0
LINE
  8
別途部材
  6
CONTINUOUS
 10
-14.242993
 20
-71.291265
 11
-14.242993
 21
-79.624597
  0
LINE
  8
別途部材
  6
CONTINUOUS
 10
-11.242993
 20
-71.291265
 11
-11.242993
 21
-79.624597
  0
LINE
  8
別途部材
  6
CONTINUOUS
 10
-16.242993
 20
-70.291265
 11
-16.242993
 21
-79.624597
  0
LINE
  8
別途部材
  6
CONTINUOUS
 10
-18.242993
 20
-71.291265
 11
-18.242993
 21
-79.624597
  0
LINE
  8
別途部材
  6
CONTINUOUS
 10
-17.242993
 20
-70.291265
 11
-17.242993
 21
-79.624597
  0
LINE
  8
別途部材
  6
CONTINUOUS
 10
-19.242993
 20
-71.291265
 11
-19.242993
 21
-79.624597
  0
LINE
  8
別途部材
  6
CONTINUOUS
 10
-20.242993
 20
-70.291265
 11
-20.242993
 21
-79.624597
  0
LINE
  8
別途部材
  6
CONTINUOUS
 10
-22.242993
 20
-71.291265
 11
-22.242993
 21
-79.624597
  0
LINE
  8
別途部材
  6
CONTINUOUS
 10
-21.242993
 20
-70.291265
 11
-21.242993
 21
-79.624597
  0
LINE
  8
別途部材
  6
CONTINUOUS
 10
-23.242993
 20
-71.291265
 11
-23.242993
 21
-79.624597
  0
LINE
  8
別途部材
  6
CONTINUOUS
 10
-24.242993
 20
-70.291265
 11
-24.242993
 21
-79.624597
  0
LINE
  8
別途部材
  6
CONTINUOUS
 10
-26.242993
 20
-71.291265
 11
-26.242993
 21
-79.624597
  0
LINE
  8
別途部材
  6
CONTINUOUS
 10
-25.242993
 20
-70.291265
 11
-25.242993
 21
-79.624597
  0
LINE
  8
別途部材
  6
CONTINUOUS
 10
-27.242993
 20
-71.291265
 11
-27.242993
 21
-79.624597
  0
LINE
  8
別途部材
  6
CONTINUOUS
 10
-28.242993
 20
-70.291265
 11
-28.242993
 21
-79.624597
  0
LINE
  8
別途部材
  6
CONTINUOUS
 10
49.757007
 20
-71.291265
 11
50.757007
 21
-70.291265
  0
LINE
  8
別途部材
  6
CONTINUOUS
 10
51.757007
 20
-70.291265
 11
52.757007
 21
-71.291265
  0
LINE
  8
別途部材
  6
CONTINUOUS
 10
50.757007
 20
-70.291265
 11
51.757007
 21
-70.291265
  0
LINE
  8
別途部材
  6
CONTINUOUS
 10
48.757007
 20
-71.291265
 11
49.757007
 21
-71.291265
  0
LINE
  8
別途部材
  6
CONTINUOUS
 10
52.757007
 20
-71.291265
 11
52.757007
 21
-79.624597
  0
LINE
  8
別途部材
  6
CONTINUOUS
 10
50.757007
 20
-70.291265
 11
50.757007
 21
-79.624597
  0
LINE
  8
別途部材
  6
CONTINUOUS
 10
51.757007
 20
-70.291265
 11
51.757007
 21
-79.624597
  0
LINE
  8
別途部材
  6
CONTINUOUS
 10
49.757007
 20
-71.291265
 11
49.757007
 21
-79.624597
  0
LINE
  8
別途部材
  6
CONTINUOUS
 10
53.757007
 20
-71.291265
 11
54.757007
 21
-70.291265
  0
LINE
  8
別途部材
  6
CONTINUOUS
 10
55.757007
 20
-70.291265
 11
56.757007
 21
-71.291265
  0
LINE
  8
別途部材
  6
CONTINUOUS
 10
54.757007
 20
-70.291265
 11
55.757007
 21
-70.291265
  0
LINE
  8
別途部材
  6
CONTINUOUS
 10
52.757007
 20
-71.291265
 11
53.757007
 21
-71.291265
  0
LINE
  8
別途部材
  6
CONTINUOUS
 10
56.757007
 20
-71.291265
 11
56.757007
 21
-79.624597
  0
LINE
  8
別途部材
  6
CONTINUOUS
 10
54.757007
 20
-70.291265
 11
54.757007
 21
-79.624597
  0
LINE
  8
別途部材
  6
CONTINUOUS
 10
55.757007
 20
-70.291265
 11
55.757007
 21
-79.624597
  0
LINE
  8
別途部材
  6
CONTINUOUS
 10
53.757007
 20
-71.291265
 11
53.757007
 21
-79.624597
  0
ARC
  8
別途部材
  6
CONTINUOUS
 10
56.257005
 20
-88.957929
 40
17.666667
 50
31.890796
 51
88.378195
  0
ENDBLK
  0
BLOCK
  2
*DIM_0015
 70
    65
 10
0.0
 20
0.0
  0
LINE
  8
寸法
  6
BYBLOCK
 62
     0
 10
145.328765
 20
-87.823622
 11
155.941423
 21
-87.823622
  0
LINE
  8
寸法
  6
BYBLOCK
 62
     0
 10
145.328765
 20
-58.49029
 11
155.941423
 21
-58.49029
  0
LINE
  8
寸法
  6
BYBLOCK
 62
     0
 10
155.941423
 20
-87.823622
 11
155.941423
 21
-58.49029
  0
POINT
  8
寸法
 62
     0
 10
155.941423
 20
-87.823622
  0
POINT
  8
寸法
 62
     0
 10
155.941423
 20
-58.49029
  0
TEXT
  7
TextStyle03
  8
寸法
  6
CONTINUOUS
 62
     0
 10
155.55
 20
-75.6125
  1
880
 40
3.0
 50
90.0
 72
     5
 11
155.55
 21
-70.7375
  0
ENDBLK
  0
BLOCK
  2
*DIM_0016
 70
    65
 10
0.0
 20
0.0
  0
LINE
  8
寸法
  6
BYBLOCK
 62
     0
 10
-131.742993
 20
38.399048
 11
-145.03583
 21
38.399048
  0
LINE
  8
寸法
  6
BYBLOCK
 62
     0
 10
-131.742993
 20
18.399048
 11
-145.03583
 21
18.399048
  0
LINE
  8
寸法
  6
BYBLOCK
 62
     0
 10
-145.03583
 20
38.399048
 11
-145.03583
 21
18.399048
  0
POINT
  8
寸法
 62
     0
 10
-145.03583
 20
38.399048
  0
POINT
  8
寸法
 62
     0
 10
-145.03583
 20
18.399048
  0
TEXT
  7
TextStyle03
  8
寸法
  6
CONTINUOUS
 62
     0
 10
-145.425
 20
25.9625
  1
600
 40
3.0
 50
90.0
 72
     5
 11
-145.425
 21
30.8375
  0
ENDBLK
  0
BLOCK
  2
*DIM_0017
 70
    65
 10
0.0
 20
0.0
  0
LINE
  8
寸法
  6
BYBLOCK
 62
     0
 10
-122.076325
 20
46.399048
 11
-122.076325
 21
75.50712
  0
LINE
  8
寸法
  6
BYBLOCK
 62
     0
 10
-98.742993
 20
46.399048
 11
-98.742993
 21
75.50712
  0
LINE
  8
寸法
  6
BYBLOCK
 62
     0
 10
-122.076325
 20
75.50712
 11
-98.742993
 21
75.50712
  0
POINT
  8
寸法
 62
     0
 10
-122.076325
 20
75.50712
  0
POINT
  8
寸法
 62
     0
 10
-98.742993
 20
75.50712
  0
TEXT
  7
TextStyle03
  8
寸法
  6
CONTINUOUS
 62
     0
 10
-112.8625
 20
75.875
  1
700
 40
3.0
 72
     5
 11
-107.9875
 21
75.875
  0
ENDBLK
  0
BLOCK
  2
*DIM_0018
 70
    65
 10
0.0
 20
0.0
  0
LINE
  8
寸法
  6
BYBLOCK
 62
     0
 10
-75.40966
 20
46.399048
 11
-75.40966
 21
75.50712
  0
LINE
  8
寸法
  6
BYBLOCK
 62
     0
 10
-98.742993
 20
75.50712
 11
-75.40966
 21
75.50712
  0
POINT
  8
寸法
 62
     0
 10
-75.40966
 20
75.50712
  0
TEXT
  7
TextStyle03
  8
寸法
  6
CONTINUOUS
 62
     0
 10
-89.5375
 20
75.875
  1
700
 40
3.0
 72
     5
 11
-84.6625
 21
75.875
  0
ENDBLK
  0
BLOCK
  2
*DIM_0019
 70
    65
 10
0.0
 20
0.0
  0
LINE
  8
寸法
  6
BYBLOCK
 62
     0
 10
-52.076325
 20
46.399048
 11
-52.076325
 21
75.50712
  0
LINE
  8
寸法
  6
BYBLOCK
 62
     0
 10
-75.40966
 20
75.50712
 11
-52.076325
 21
75.50712
  0
POINT
  8
寸法
 62
     0
 10
-52.076325
 20
75.50712
  0
TEXT
  7
TextStyle03
  8
寸法
  6
CONTINUOUS
 62
     0
 10
-66.1875
 20
75.875
  1
700
 40
3.0
 72
     5
 11
-61.3125
 21
75.875
  0
ENDBLK
  0
BLOCK
  2
*DIM_0020
 70
    65
 10
0.0
 20
0.0
  0
LINE
  8
寸法
  6
BYBLOCK
 62
     0
 10
-28.742993
 20
46.399048
 11
-28.742993
 21
75.50712
  0
LINE
  8
寸法
  6
BYBLOCK
 62
     0
 10
-52.076325
 20
75.50712
 11
-28.742993
 21
75.50712
  0
POINT
  8
寸法
 62
     0
 10
-28.742993
 20
75.50712
  0
TEXT
  7
TextStyle03
  8
寸法
  6
CONTINUOUS
 62
     0
 10
-42.8625
 20
75.875
  1
700
 40
3.0
 72
     5
 11
-37.9875
 21
75.875
  0
ENDBLK
  0
BLOCK
  2
*DIM_0021
 70
    65
 10
0.0
 20
0.0
  0
LINE
  8
寸法
  6
BYBLOCK
 62
     0
 10
-5.40966
 20
46.399048
 11
-5.40966
 21
75.50712
  0
LINE
  8
寸法
  6
BYBLOCK
 62
     0
 10
-28.742993
 20
75.50712
 11
-5.40966
 21
75.50712
  0
POINT
  8
寸法
 62
     0
 10
-5.40966
 20
75.50712
  0
TEXT
  7
TextStyle03
  8
寸法
  6
CONTINUOUS
 62
     0
 10
-19.5375
 20
75.875
  1
700
 40
3.0
 72
     5
 11
-14.6625
 21
75.875
  0
ENDBLK
  0
BLOCK
  2
*DIM_0022
 70
    65
 10
0.0
 20
0.0
  0
LINE
  8
寸法
  6
BYBLOCK
 62
     0
 10
17.923675
 20
46.399048
 11
17.923675
 21
75.50712
  0
LINE
  8
寸法
  6
BYBLOCK
 62
     0
 10
-5.40966
 20
75.50712
 11
17.923675
 21
75.50712
  0
POINT
  8
寸法
 62
     0
 10
17.923675
 20
75.50712
  0
TEXT
  7
TextStyle03
  8
寸法
  6
CONTINUOUS
 62
     0
 10
3.8125
 20
75.875
  1
700
 40
3.0
 72
     5
 11
8.6875
 21
75.875
  0
ENDBLK
  0
BLOCK
  2
*DIM_0023
 70
    65
 10
0.0
 20
0.0
  0
LINE
  8
寸法
  6
BYBLOCK
 62
     0
 10
41.257007
 20
46.399048
 11
41.257007
 21
75.50712
  0
LINE
  8
寸法
  6
BYBLOCK
 62
     0
 10
17.923675
 20
75.50712
 11
41.257007
 21
75.50712
  0
POINT
  8
寸法
 62
     0
 10
41.257007
 20
75.50712
  0
TEXT
  7
TextStyle03
  8
寸法
  6
CONTINUOUS
 62
     0
 10
27.1375
 20
75.875
  1
700
 40
3.0
 72
     5
 11
32.0125
 21
75.875
  0
ENDBLK
  0
BLOCK
  2
*DIM_0024
 70
    65
 10
0.0
 20
0.0
  0
LINE
  8
寸法
  6
BYBLOCK
 62
     0
 10
64.59034
 20
46.399048
 11
64.59034
 21
75.50712
  0
LINE
  8
寸法
  6
BYBLOCK
 62
     0
 10
41.257007
 20
75.50712
 11
64.59034
 21
75.50712
  0
POINT
  8
寸法
 62
     0
 10
64.59034
 20
75.50712
  0
TEXT
  7
TextStyle03
  8
寸法
  6
CONTINUOUS
 62
     0
 10
50.4625
 20
75.875
  1
700
 40
3.0
 72
     5
 11
55.3375
 21
75.875
  0
ENDBLK
  0
BLOCK
  2
*DIM_0025
 70
    65
 10
0.0
 20
0.0
  0
LINE
  8
寸法
  6
CONTINUOUS
 10
110.578652
 20
-53.49029
 11
110.578652
 21
-45.876765
  0
LINE
  8
寸法
  6
CONTINUOUS
 10
142.88432
 20
-53.49029
 11
142.88432
 21
-45.876765
  0
LINE
  8
寸法
  6
CONTINUOUS
 10
110.578652
 20
-45.876765
 11
142.88432
 21
-45.876765
  0
POINT
  8
寸法
 10
110.578652
 20
-45.876765
  0
POINT
  8
寸法
 10
142.88432
 20
-45.876765
  0
TEXT
  7
TextStyle03
  8
寸法
  6
CONTINUOUS
 10
122.6
 20
-45.525
  1
969.2
 40
3.0
 72
     5
 11
130.85
 21
-45.525
  0
ENDBLK
  0
BLOCK
  2
*GRP_0026
 70
    65
 10
0.0
 20
0.0
  0
LINE
  8
ボルト／ビス
  6
CONTINUOUS
 10
-129.40966
 20
-79.624597
 11
-129.40966
 21
-79.15793
  0
LINE
  8
ボルト／ビス
  6
CONTINUOUS
 10
-129.776328
 20
-79.624597
 11
-129.776328
 21
-79.55793
  0
LINE
  8
ボルト／ビス
  6
CONTINUOUS
 10
-129.776328
 20
-79.55793
 11
-129.042993
 21
-79.55793
  0
LINE
  8
ボルト／ビス
  6
CONTINUOUS
 10
-129.042993
 20
-79.55793
 11
-129.042993
 21
-79.624597
  0
LINE
  8
ボルト／ビス
  6
CONTINUOUS
 10
-129.776328
 20
-79.624597
 11
-129.042993
 21
-79.624597
  0
LINE
  8
ボルト／ビス
  6
CONTINUOUS
 10
-129.70966
 20
-79.524597
 11
-129.70966
 21
-79.55793
  0
LINE
  8
ボルト／ビス
  6
CONTINUOUS
 10
-129.70966
 20
-79.524597
 11
-129.10966
 21
-79.524597
  0
LINE
  8
ボルト／ビス
  6
CONTINUOUS
 10
-129.10966
 20
-79.524597
 11
-129.10966
 21
-79.55793
  0
LINE
  8
ボルト／ビス
  6
CONTINUOUS
 62
    64
 10
-129.570035
 20
-79.324597
 11
-129.60211
 21
-79.336272
  0
ARC
  8
ボルト／ビス
  6
CONTINUOUS
 62
    64
 10
-129.553996
 20
-79.429575
 40
0.104978
 50
62.721967
 51
90.0
  0
ARC
  8
ボルト／ビス
  6
CONTINUOUS
 62
    64
 10
-129.409659
 20
-79.726999
 40
0.402402
 50
76.165002
 51
103.834985
  0
LINE
  8
ボルト／ビス
  6
CONTINUOUS
 62
    64
 10
-129.249285
 20
-79.324597
 11
-129.21721
 21
-79.336272
  0
ARC
  8
ボルト／ビス
  6
CONTINUOUS
 62
    64
 10
-129.265321
 20
-79.429575
 40
0.104978
 50
90.0
 51
117.278033
  0
LINE
  8
ボルト／ビス
  6
CONTINUOUS
 62
    64
 10
-129.570035
 20
-79.324597
 11
-129.249285
 21
-79.324597
  0
LINE
  8
ボルト／ビス
  6
CONTINUOUS
 62
    64
 10
-129.21721
 20
-79.336272
 11
-129.21721
 21
-79.45793
  0
LINE
  8
ボルト／ビス
  6
CONTINUOUS
 62
    64
 10
-129.313435
 20
-79.336272
 11
-129.313435
 21
-79.45793
  0
LINE
  8
ボルト／ビス
  6
CONTINUOUS
 62
    64
 10
-129.60211
 20
-79.336272
 11
-129.60211
 21
-79.45793
  0
LINE
  8
ボルト／ビス
  6
CONTINUOUS
 62
    64
 10
-129.505885
 20
-79.336272
 11
-129.505885
 21
-79.45793
  0
LINE
  8
ボルト／ビス
  6
CONTINUOUS
 10
-129.60211
 20
-79.45793
 11
-129.21721
 21
-79.45793
  0
LINE
  8
ボルト／ビス
  6
CONTINUOUS
 10
-129.60966
 20
-79.45793
 11
-129.60966
 21
-79.524597
  0
LINE
  8
ボルト／ビス
  6
CONTINUOUS
 10
-129.60966
 20
-79.45793
 11
-129.20966
 21
-79.45793
  0
LINE
  8
ボルト／ビス
  6
CONTINUOUS
 10
-129.20966
 20
-79.45793
 11
-129.20966
 21
-79.524597
  0
ENDBLK
  0
BLOCK
  2
*GRP_0027
 70
    65
 10
0.0
 20
0.0
  0
LINE
  8
ボルト／ビス
  6
CONTINUOUS
 10
71.923675
 20
-79.624597
 11
71.923675
 21
-79.15793
  0
LINE
  8
ボルト／ビス
  6
CONTINUOUS
 10
71.557007
 20
-79.624597
 11
71.557007
 21
-79.55793
  0
LINE
  8
ボルト／ビス
  6
CONTINUOUS
 10
71.557007
 20
-79.55793
 11
72.290343
 21
-79.55793
  0
LINE
  8
ボルト／ビス
  6
CONTINUOUS
 10
72.290343
 20
-79.55793
 11
72.290343
 21
-79.624597
  0
LINE
  8
ボルト／ビス
  6
CONTINUOUS
 10
71.557007
 20
-79.624597
 11
72.290343
 21
-79.624597
  0
LINE
  8
ボルト／ビス
  6
CONTINUOUS
 10
71.623675
 20
-79.524597
 11
71.623675
 21
-79.55793
  0
LINE
  8
ボルト／ビス
  6
CONTINUOUS
 10
71.623675
 20
-79.524597
 11
72.223675
 21
-79.524597
  0
LINE
  8
ボルト／ビス
  6
CONTINUOUS
 10
72.223675
 20
-79.524597
 11
72.223675
 21
-79.55793
  0
LINE
  8
ボルト／ビス
  6
CONTINUOUS
 62
    64
 10
71.7633
 20
-79.324597
 11
71.731225
 21
-79.336272
  0
ARC
  8
ボルト／ビス
  6
CONTINUOUS
 62
    64
 10
71.779339
 20
-79.429576
 40
0.104978
 50
62.721967
 51
90.0
  0
ARC
  8
ボルト／ビス
  6
CONTINUOUS
 62
    64
 10
71.923677
 20
-79.726999
 40
0.402402
 50
76.165002
 51
103.834985
  0
LINE
  8
ボルト／ビス
  6
CONTINUOUS
 62
    64
 10
72.08405
 20
-79.324597
 11
72.116125
 21
-79.336272
  0
ARC
  8
ボルト／ビス
  6
CONTINUOUS
 62
    64
 10
72.068015
 20
-79.429576
 40
0.104978
 50
90.0
 51
117.278033
  0
LINE
  8
ボルト／ビス
  6
CONTINUOUS
 62
    64
 10
71.7633
 20
-79.324597
 11
72.08405
 21
-79.324597
  0
LINE
  8
ボルト／ビス
  6
CONTINUOUS
 62
    64
 10
72.116125
 20
-79.336272
 11
72.116125
 21
-79.45793
  0
LINE
  8
ボルト／ビス
  6
CONTINUOUS
 62
    64
 10
72.0199
 20
-79.336272
 11
72.0199
 21
-79.45793
  0
LINE
  8
ボルト／ビス
  6
CONTINUOUS
 62
    64
 10
71.731225
 20
-79.336272
 11
71.731225
 21
-79.45793
  0
LINE
  8
ボルト／ビス
  6
CONTINUOUS
 62
    64
 10
71.82745
 20
-79.336272
 11
71.82745
 21
-79.45793
  0
LINE
  8
ボルト／ビス
  6
CONTINUOUS
 10
71.731225
 20
-79.45793
 11
72.116125
 21
-79.45793
  0
LINE
  8
ボルト／ビス
  6
CONTINUOUS
 10
71.723675
 20
-79.45793
 11
71.723675
 21
-79.524597
  0
LINE
  8
ボルト／ビス
  6
CONTINUOUS
 10
71.723675
 20
-79.45793
 11
72.123675
 21
-79.45793
  0
LINE
  8
ボルト／ビス
  6
CONTINUOUS
 10
72.123675
 20
-79.45793
 11
72.123675
 21
-79.524597
  0
ENDBLK
  0
BLOCK
  2
*GRP_0028
 70
    65
 10
0.0
 20
0.0
  0
LINE
  8
ボルト／ビス
  6
CONTINUOUS
 10
160.790272
 20
12.73238
 11
160.323605
 21
12.73238
  0
LINE
  8
ボルト／ビス
  6
CONTINUOUS
 10
160.790272
 20
12.365712
 11
160.723605
 21
12.365712
  0
LINE
  8
ボルト／ビス
  6
CONTINUOUS
 10
160.723605
 20
12.365712
 11
160.723605
 21
13.099048
  0
LINE
  8
ボルト／ビス
  6
CONTINUOUS
 10
160.723605
 20
13.099048
 11
160.790272
 21
13.099048
  0
LINE
  8
ボルト／ビス
  6
CONTINUOUS
 10
160.790272
 20
12.365712
 11
160.790272
 21
13.099048
  0
LINE
  8
ボルト／ビス
  6
CONTINUOUS
 10
160.690272
 20
12.43238
 11
160.723605
 21
12.43238
  0
LINE
  8
ボルト／ビス
  6
CONTINUOUS
 10
160.690272
 20
12.43238
 11
160.690272
 21
13.03238
  0
LINE
  8
ボルト／ビス
  6
CONTINUOUS
 10
160.690272
 20
13.03238
 11
160.723605
 21
13.03238
  0
LINE
  8
ボルト／ビス
  6
CONTINUOUS
 62
    64
 10
160.490273
 20
12.572005
 11
160.501947
 21
12.53993
  0
ARC
  8
ボルト／ビス
  6
CONTINUOUS
 62
    64
 10
160.595251
 20
12.588045
 40
0.104978
 50
152.721967
 51
180.0
  0
ARC
  8
ボルト／ビス
  6
CONTINUOUS
 62
    64
 10
160.892675
 20
12.732382
 40
0.402402
 50
166.165002
 51
193.834985
  0
LINE
  8
ボルト／ビス
  6
CONTINUOUS
 62
    64
 10
160.490273
 20
12.892755
 11
160.501947
 21
12.92483
  0
ARC
  8
ボルト／ビス
  6
CONTINUOUS
 62
    64
 10
160.595251
 20
12.87672
 40
0.104978
 50
180.0
 51
207.278033
  0
LINE
  8
ボルト／ビス
  6
CONTINUOUS
 62
    64
 10
160.490273
 20
12.572005
 11
160.490273
 21
12.892755
  0
LINE
  8
ボルト／ビス
  6
CONTINUOUS
 62
    64
 10
160.501947
 20
12.92483
 11
160.623605
 21
12.92483
  0
LINE
  8
ボルト／ビス
  6
CONTINUOUS
 62
    64
 10
160.501947
 20
12.828605
 11
160.623605
 21
12.828605
  0
LINE
  8
ボルト／ビス
  6
CONTINUOUS
 62
    64
 10
160.501947
 20
12.53993
 11
160.623605
 21
12.53993
  0
LINE
  8
ボルト／ビス
  6
CONTINUOUS
 62
    64
 10
160.501947
 20
12.636155
 11
160.623605
 21
12.636155
  0
LINE
  8
ボルト／ビス
  6
CONTINUOUS
 10
160.623605
 20
12.53993
 11
160.623605
 21
12.92483
  0
LINE
  8
ボルト／ビス
  6
CONTINUOUS
 10
160.623605
 20
12.53238
 11
160.690272
 21
12.53238
  0
LINE
  8
ボルト／ビス
  6
CONTINUOUS
 10
160.623605
 20
12.53238
 11
160.623605
 21
12.93238
  0
LINE
  8
ボルト／ビス
  6
CONTINUOUS
 10
160.623605
 20
12.93238
 11
160.690272
 21
12.93238
  0
ENDBLK
  0
BLOCK
  2
*GRP_0029
 70
    65
 10
0.0
 20
0.0
  0
LINE
  8
ボルト／ビス
  6
CONTINUOUS
 10
160.790272
 20
44.065715
 11
160.323605
 21
44.065715
  0
LINE
  8
ボルト／ビス
  6
CONTINUOUS
 10
160.790272
 20
43.699048
 11
160.723605
 21
43.699048
  0
LINE
  8
ボルト／ビス
  6
CONTINUOUS
 10
160.723605
 20
43.699048
 11
160.723605
 21
44.432382
  0
LINE
  8
ボルト／ビス
  6
CONTINUOUS
 10
160.723605
 20
44.432382
 11
160.790272
 21
44.432382
  0
LINE
  8
ボルト／ビス
  6
CONTINUOUS
 10
160.790272
 20
43.699048
 11
160.790272
 21
44.432382
  0
LINE
  8
ボルト／ビス
  6
CONTINUOUS
 10
160.690272
 20
43.765715
 11
160.723605
 21
43.765715
  0
LINE
  8
ボルト／ビス
  6
CONTINUOUS
 10
160.690272
 20
43.765715
 11
160.690272
 21
44.365715
  0
LINE
  8
ボルト／ビス
  6
CONTINUOUS
 10
160.690272
 20
44.365715
 11
160.723605
 21
44.365715
  0
LINE
  8
ボルト／ビス
  6
CONTINUOUS
 62
    64
 10
160.490273
 20
43.90534
 11
160.501947
 21
43.873265
  0
ARC
  8
ボルト／ビス
  6
CONTINUOUS
 62
    64
 10
160.595251
 20
43.92138
 40
0.104978
 50
152.721967
 51
180.0
  0
ARC
  8
ボルト／ビス
  6
CONTINUOUS
 62
    64
 10
160.892675
 20
44.065717
 40
0.402402
 50
166.165002
 51
193.834985
  0
LINE
  8
ボルト／ビス
  6
CONTINUOUS
 62
    64
 10
160.490273
 20
44.22609
 11
160.501947
 21
44.258165
  0
ARC
  8
ボルト／ビス
  6
CONTINUOUS
 62
    64
 10
160.595251
 20
44.210055
 40
0.104978
 50
180.0
 51
207.278033
  0
LINE
  8
ボルト／ビス
  6
CONTINUOUS
 62
    64
 10
160.490273
 20
43.90534
 11
160.490273
 21
44.22609
  0
LINE
  8
ボルト／ビス
  6
CONTINUOUS
 62
    64
 10
160.501947
 20
44.258165
 11
160.623605
 21
44.258165
  0
LINE
  8
ボルト／ビス
  6
CONTINUOUS
 62
    64
 10
160.501947
 20
44.16194
 11
160.623605
 21
44.16194
  0
LINE
  8
ボルト／ビス
  6
CONTINUOUS
 62
    64
 10
160.501947
 20
43.873265
 11
160.623605
 21
43.873265
  0
LINE
  8
ボルト／ビス
  6
CONTINUOUS
 62
    64
 10
160.501947
 20
43.96949
 11
160.623605
 21
43.96949
  0
LINE
  8
ボルト／ビス
  6
CONTINUOUS
 10
160.623605
 20
43.873265
 11
160.623605
 21
44.258165
  0
LINE
  8
ボルト／ビス
  6
CONTINUOUS
 10
160.623605
 20
43.865715
 11
160.690272
 21
43.865715
  0
LINE
  8
ボルト／ビス
  6
CONTINUOUS
 10
160.623605
 20
43.865715
 11
160.623605
 21
44.265715
  0
LINE
  8
ボルト／ビス
  6
CONTINUOUS
 10
160.623605
 20
44.265715
 11
160.690272
 21
44.265715
  0
ENDBLK
  0
ENDSEC
  0
SECTION
  2
ENTITIES
  0
POLYLINE
  8
通り芯
  6
CONTINUOUS
 66
     1
 70
     1
  0
VERTEX
  8
通り芯
 10
-210.0
 20
-148.5
  0
VERTEX
  8
通り芯
 10
210.0
 20
-148.5
  0
VERTEX
  8
通り芯
 10
210.0
 20
148.5
  0
VERTEX
  8
通り芯
 10
-210.0
 20
148.5
  0
SEQEND
  0
INSERT
  2
*GRP_0001
  8
型材断面
  6
CONTINUOUS
 10
0.0
 20
0.0
  0
LINE
  8
型材断面
  6
DASHDOT
 10
-128.742993
 20
13.399048
 11
168.93377
 21
13.399048
  0
LINE
  8
型材断面
  6
DASHDOT
 10
-128.742993
 20
28.399048
 11
168.93377
 21
28.399048
  0
LINE
  8
型材断面
  6
DASHDOT
 10
-128.742993
 20
43.399048
 11
168.93377
 21
43.399048
  0
LINE
  8
型材断面
  6
DASHDOT
 10
-128.742993
 20
-87.251428
 11
-128.742993
 21
43.399048
  0
LINE
  8
型材断面
  6
DASHDOT
 10
-28.742993
 20
-87.251428
 11
-28.742993
 21
43.399048
  0
LINE
  8
型材断面
  6
DOT
 10
-29.992993
 20
13.399048
 11
-29.992993
 21
43.399048
  0
LINE
  8
型材断面
  6
DOT
 10
-27.492993
 20
13.399048
 11
-27.492993
 21
43.399048
  0
LINE
  8
型材断面
  6
DASHDOT
 10
71.257007
 20
-87.251428
 11
71.257007
 21
43.399048
  0
LINE
  8
型材断面
  6
CONTINUOUS
 10
-112.076325
 20
46.029177
 11
-113.571955
 21
48.619685
  0
LINE
  8
型材断面
  6
CONTINUOUS
 10
-112.076325
 20
46.029177
 11
-110.580695
 21
48.619685
  0
LINE
  8
型材断面
  6
CONTINUOUS
 10
-110.580695
 20
48.619685
 11
-113.571955
 21
48.619685
  0
LINE
  8
型材断面
  6
CONTINUOUS
 10
-169.5952
 20
87.906395
 11
-171.09083
 21
85.315887
  0
LINE
  8
型材断面
  6
CONTINUOUS
 10
-169.5952
 20
87.906395
 11
-168.09957
 21
85.315887
  0
LINE
  8
型材断面
  6
CONTINUOUS
 10
-168.09957
 20
85.315887
 11
-171.09083
 21
85.315887
  0
LINE
  8
型材断面
  6
CONTINUOUS
 10
-175.617788
 20
84.377292
 11
-129.37601
 21
84.377292
  0
LINE
  8
型材断面
  6
CONTINUOUS
 10
-131.373123
 20
28.399048
 11
-133.96363
 21
29.894678
  0
LINE
  8
型材断面
  6
CONTINUOUS
 10
-131.373123
 20
28.399048
 11
-133.96363
 21
26.903418
  0
LINE
  8
型材断面
  6
CONTINUOUS
 10
-133.96363
 20
26.903418
 11
-133.96363
 21
29.894678
  0
LINE
  8
型材断面
  6
CONTINUOUS
 10
-112.076325
 20
10.768917
 11
-113.571955
 21
8.17841
  0
LINE
  8
型材断面
  6
CONTINUOUS
 10
-112.076325
 20
10.768917
 11
-110.580695
 21
8.17841
  0
LINE
  8
型材断面
  6
CONTINUOUS
 10
-110.580695
 20
8.17841
 11
-113.571955
 21
8.17841
  0
LINE
  8
型材断面
  6
CONTINUOUS
 10
54.59034
 20
46.029177
 11
56.08597
 21
48.619685
  0
LINE
  8
型材断面
  6
CONTINUOUS
 10
54.59034
 20
46.029177
 11
53.09471
 21
48.619685
  0
LINE
  8
型材断面
  6
CONTINUOUS
 10
53.09471
 20
48.619685
 11
56.08597
 21
48.619685
  0
LINE
  8
型材断面
  6
CONTINUOUS
 10
54.59034
 20
10.768917
 11
56.08597
 21
8.17841
  0
LINE
  8
型材断面
  6
CONTINUOUS
 10
54.59034
 20
10.768917
 11
53.09471
 21
8.17841
  0
LINE
  8
型材断面
  6
CONTINUOUS
 10
53.09471
 20
8.17841
 11
56.08597
 21
8.17841
  0
LINE
  8
型材断面
  6
CONTINUOUS
 10
-28.742993
 20
46.029175
 11
-27.247362
 21
48.619683
  0
LINE
  8
型材断面
  6
CONTINUOUS
 10
-28.742993
 20
46.029175
 11
-30.238623
 21
48.619683
  0
LINE
  8
型材断面
  6
CONTINUOUS
 10
-30.238623
 20
48.619683
 11
-27.247362
 21
48.619683
  0
LINE
  8
型材断面
  6
CONTINUOUS
 10
-28.742993
 20
10.768915
 11
-27.247362
 21
8.178407
  0
LINE
  8
型材断面
  6
CONTINUOUS
 10
-28.742993
 20
10.768915
 11
-30.238623
 21
8.178407
  0
LINE
  8
型材断面
  6
CONTINUOUS
 10
-30.238623
 20
8.178407
 11
-27.247362
 21
8.178407
  0
LINE
  8
型材断面
  6
CONTINUOUS
 10
73.887138
 20
28.399048
 11
76.477645
 21
29.894678
  0
LINE
  8
型材断面
  6
CONTINUOUS
 10
73.887138
 20
28.399048
 11
76.477645
 21
26.903418
  0
LINE
  8
型材断面
  6
CONTINUOUS
 10
76.477645
 20
26.903418
 11
76.477645
 21
29.894678
  0
LINE
  8
型材断面
  6
CONTINUOUS
 10
-175.617788
 20
78.319088
 11
-129.37601
 21
78.319088
  0
LINE
  8
型材断面
  6
CONTINUOUS
 10
163.323558
 20
11.242235
 11
162.873558
 21
11.242235
  0
LINE
  8
型材断面
  6
CONTINUOUS
 62
    47
 10
162.873558
 20
10.792235
 11
162.373558
 21
10.792235
  0
LINE
  8
型材断面
  6
CONTINUOUS
 62
    47
 10
162.373558
 20
10.792235
 11
161.790272
 21
12.666692
  0
LINE
  8
型材断面
  6
CONTINUOUS
 10
162.373558
 20
10.792235
 11
162.373558
 21
28.399048
  0
LINE
  8
型材断面
  6
CONTINUOUS
 10
163.323558
 20
11.242235
 11
163.323558
 21
28.399048
  0
LINE
  8
型材断面
  6
CONTINUOUS
 10
163.323558
 20
45.55586
 11
162.873558
 21
45.55586
  0
LINE
  8
型材断面
  6
CONTINUOUS
 62
    47
 10
162.873558
 20
46.00586
 11
162.373558
 21
46.00586
  0
LINE
  8
型材断面
  6
CONTINUOUS
 62
    47
 10
162.373558
 20
46.00586
 11
161.790272
 21
44.131402
  0
LINE
  8
型材断面
  6
CONTINUOUS
 10
162.373558
 20
46.00586
 11
162.373558
 21
28.399048
  0
LINE
  8
型材断面
  6
CONTINUOUS
 10
163.323558
 20
45.55586
 11
163.323558
 21
28.399048
  0
LINE
  8
型材断面
  6
CONTINUOUS
 10
73.323675
 20
11.33238
 11
73.86382
 21
10.792235
  0
LINE
  8
型材断面
  6
CONTINUOUS
 10
73.86382
 20
10.792235
 11
73.86382
 21
28.399048
  0
LINE
  8
型材断面
  6
CONTINUOUS
 10
73.41382
 20
-82.157882
 11
73.41382
 21
-81.707882
  0
LINE
  8
型材断面
  6
CONTINUOUS
 62
    47
 10
73.86382
 20
-81.707882
 11
73.86382
 21
-81.207882
  0
LINE
  8
型材断面
  6
CONTINUOUS
 62
    47
 10
73.86382
 20
-81.207882
 11
71.989363
 21
-80.624597
  0
LINE
  8
型材断面
  6
CONTINUOUS
 10
73.86382
 20
-81.207882
 11
-28.742993
 21
-81.207882
  0
LINE
  8
型材断面
  6
CONTINUOUS
 10
73.41382
 20
-82.157882
 11
-28.742993
 21
-82.157882
  0
LINE
  8
型材断面
  6
CONTINUOUS
 10
-130.899805
 20
-82.157882
 11
-130.899805
 21
-81.707882
  0
LINE
  8
型材断面
  6
CONTINUOUS
 62
    47
 10
-131.349805
 20
-81.707882
 11
-131.349805
 21
-81.207882
  0
LINE
  8
型材断面
  6
CONTINUOUS
 62
    47
 10
-131.349805
 20
-81.207882
 11
-129.475348
 21
-80.624597
  0
LINE
  8
型材断面
  6
CONTINUOUS
 10
-131.349805
 20
-81.207882
 11
-28.742993
 21
-81.207882
  0
LINE
  8
型材断面
  6
CONTINUOUS
 10
-130.899805
 20
-82.157882
 11
-28.742993
 21
-82.157882
  0
LINE
  8
型材断面
  6
CONTINUOUS
 10
73.86382
 20
10.792235
 11
-28.742993
 21
10.792265
  0
LINE
  8
型材断面
  6
CONTINUOUS
 10
73.323675
 20
45.465715
 11
73.86382
 21
46.00586
  0
LINE
  8
型材断面
  6
CONTINUOUS
 10
73.86382
 20
46.00586
 11
73.86382
 21
28.399048
  0
LINE
  8
型材断面
  6
CONTINUOUS
 10
73.86382
 20
46.00586
 11
-28.742993
 21
46.00583
  0
LINE
  8
型材断面
  6
CONTINUOUS
 10
-130.80966
 20
45.465715
 11
-131.349805
 21
46.00586
  0
LINE
  8
型材断面
  6
CONTINUOUS
 10
-131.349805
 20
46.00586
 11
-131.349805
 21
28.399048
  0
LINE
  8
型材断面
  6
CONTINUOUS
 10
-131.349805
 20
46.00586
 11
-28.742993
 21
46.00583
  0
LINE
  8
型材断面
  6
CONTINUOUS
 10
-130.80966
 20
11.33238
 11
-131.349805
 21
10.792235
  0
LINE
  8
型材断面
  6
CONTINUOUS
 10
-131.349805
 20
10.792235
 11
-131.349805
 21
28.399048
  0
LINE
  8
型材断面
  6
CONTINUOUS
 10
-131.349805
 20
10.792235
 11
-28.742993
 21
10.792265
  0
LINE
  8
型材断面
  6
DASHDOT
 10
-95.554103
 20
13.399048
 11
-95.554103
 21
43.399048
  0
LINE
  8
型材断面
  6
DOT
 10
-96.804103
 20
13.399048
 11
-96.804103
 21
43.399048
  0
LINE
  8
型材断面
  6
DOT
 10
-94.304103
 20
13.399048
 11
-94.304103
 21
43.399048
  0
LINE
  8
型材断面
  6
DOT
 10
-63.398548
 20
13.399048
 11
-63.398548
 21
43.399048
  0
LINE
  8
型材断面
  6
DOT
 10
-60.898548
 20
13.399048
 11
-60.898548
 21
43.399048
  0
LINE
  8
型材断面
  6
DASHDOT
 10
-62.148548
 20
13.399048
 11
-62.148548
 21
43.399048
  0
LINE
  8
型材断面
  6
DASHDOT
 10
38.068117
 20
13.399048
 11
38.068117
 21
43.399048
  0
LINE
  8
型材断面
  6
DOT
 10
39.318117
 20
13.399048
 11
39.318117
 21
43.399048
  0
LINE
  8
型材断面
  6
DOT
 10
36.818117
 20
13.399048
 11
36.818117
 21
43.399048
  0
LINE
  8
型材断面
  6
DOT
 10
5.912563
 20
13.399048
 11
5.912563
 21
43.399048
  0
LINE
  8
型材断面
  6
DOT
 10
3.412563
 20
13.399048
 11
3.412563
 21
43.399048
  0
LINE
  8
型材断面
  6
DASHDOT
 10
4.662563
 20
13.399048
 11
4.662563
 21
43.399048
  0
LINE
  8
ガラス
  6
CONTINUOUS
 10
142.88432
 20
-87.823622
 11
142.88432
 21
-58.49029
  0
LINE
  8
ガラス
  6
CONTINUOUS
 10
142.88432
 20
-87.823622
 11
110.578652
 21
-87.823622
  0
LINE
  8
ガラス
  6
CONTINUOUS
 10
110.578652
 20
-87.823622
 11
110.578652
 21
-58.49029
  0
LINE
  8
ガラス
  6
CONTINUOUS
 10
142.88432
 20
-58.49029
 11
110.578652
 21
-58.49029
  0
TEXT
  7
TextStyle03
  8
文字
  6
CONTINUOUS
 10
-166.775
 20
85.525
  1
は排水穴位置を示す
 40
3.0
 72
     5
 11
-136.775
 21
85.525
  0
TEXT
  7
TextStyle03
  8
文字
  6
CONTINUOUS
 10
124.05
 20
-81.275
  1
網入り6.8t
 40
3.0
 72
     5
 11
140.7375
 21
-81.275
  0
TEXT
  7
TextStyle03
  8
文字
  6
CONTINUOUS
 10
130.725
 20
-85.95
  1
×６枚
 40
3.0
 72
     5
 11
140.475
 21
-85.95
  0
TEXT
  7
TextStyle03
  8
文字
  6
CONTINUOUS
 10
-149.75
 20
6.875
  1
アンカーピッチ
 40
3.0
 50
90.0
 72
     5
 11
-149.75
 21
30.125
  0
TEXT
  7
TextStyle03
  8
文字
  6
CONTINUOUS
 10
-115.3
 20
80.55
  1
アンカーピッチ
 40
3.0
 72
     5
 11
-92.05
 21
80.55
  0
TEXT
  7
TextStyle03
  8
文字
  6
CONTINUOUS
 10
-170.5
 20
79.25
  1
アンカー数量　２２ヶ所
 40
3.0
 72
     5
 11
-133.75
 21
79.25
  0
TEXT
  7
TextStyle03
  8
文字
  6
CONTINUOUS
 10
78.1
 20
125.25
  1
シリーズ：ＳＴＤＫＬ
 40
5.0
 72
     5
 11
133.725
 21
125.25
  0
TEXT
  7
TextStyle03
  8
文字
  6
CONTINUOUS
 10
78.1
 20
119.625
  1
　　　　　（固定）900×6000タイプ
 40
5.0
 72
     5
 11
170.2875
 21
119.625
  0
TEXT
  7
TextStyle03
  8
文字
  6
CONTINUOUS
 10
78.1
 20
114.0
  1
図面名　：外観姿図
 40
5.0
 72
     5
 11
128.1
 21
114.0
  0
TEXT
  7
TextStyle03
  8
文字
  6
CONTINUOUS
 10
78.1
 20
108.375
  1
　　　　　　
 40
5.0
 72
     5
 11
111.225
 21
108.375
  0
TEXT
  7
TextStyle03
  8
文字
  6
CONTINUOUS
 10
78.05
 20
104.5
  1
ＮＳコード：ＮＳＫＳＬ
 40
5.0
 72
     5
 11
139.3
 21
104.5
  0
INSERT
  2
*DIM_0002
  8
寸法
  6
CONTINUOUS
 10
0.0
 20
0.0
  0
INSERT
  2
*DIM_0003
  8
寸法
  6
CONTINUOUS
 10
0.0
 20
0.0
  0
INSERT
  2
*DIM_0004
  8
寸法
  6
CONTINUOUS
 10
0.0
 20
0.0
  0
INSERT
  2
*DIM_0005
  8
寸法
  6
CONTINUOUS
 10
0.0
 20
0.0
  0
INSERT
  2
*DIM_0006
  8
寸法
  6
CONTINUOUS
 10
0.0
 20
0.0
  0
INSERT
  2
*DIM_0007
  8
寸法
  6
CONTINUOUS
 10
0.0
 20
0.0
  0
INSERT
  2
*DIM_0008
  8
寸法
  6
CONTINUOUS
 10
0.0
 20
0.0
  0
INSERT
  2
*DIM_0009
  8
寸法
  6
CONTINUOUS
 10
0.0
 20
0.0
  0
INSERT
  2
*DIM_0010
  8
寸法
  6
CONTINUOUS
 10
0.0
 20
0.0
  0
INSERT
  2
*DIM_0011
  8
寸法
  6
CONTINUOUS
 10
0.0
 20
0.0
  0
INSERT
  2
*DIM_0012
  8
寸法
  6
CONTINUOUS
 10
0.0
 20
0.0
  0
INSERT
  2
*DIM_0013
  8
寸法
  6
CONTINUOUS
 10
0.0
 20
0.0
  0
INSERT
  2
*DIM_0015
  8
寸法
  6
CONTINUOUS
 10
0.0
 20
0.0
  0
INSERT
  2
*DIM_0016
  8
寸法
  6
CONTINUOUS
 10
0.0
 20
0.0
  0
INSERT
  2
*DIM_0017
  8
寸法
  6
CONTINUOUS
 10
0.0
 20
0.0
  0
INSERT
  2
*DIM_0018
  8
寸法
  6
CONTINUOUS
 10
0.0
 20
0.0
  0
INSERT
  2
*DIM_0019
  8
寸法
  6
CONTINUOUS
 10
0.0
 20
0.0
  0
INSERT
  2
*DIM_0020
  8
寸法
  6
CONTINUOUS
 10
0.0
 20
0.0
  0
INSERT
  2
*DIM_0021
  8
寸法
  6
CONTINUOUS
 10
0.0
 20
0.0
  0
INSERT
  2
*DIM_0022
  8
寸法
  6
CONTINUOUS
 10
0.0
 20
0.0
  0
INSERT
  2
*DIM_0023
  8
寸法
  6
CONTINUOUS
 10
0.0
 20
0.0
  0
INSERT
  2
*DIM_0024
  8
寸法
  6
CONTINUOUS
 10
0.0
 20
0.0
  0
INSERT
  2
*DIM_0025
  8
寸法
  6
CONTINUOUS
 10
0.0
 20
0.0
  0
LINE
  8
別途部材
  6
CONTINUOUS
 10
-130.80966
 20
11.33238
 11
-130.40966
 21
11.73238
  0
LINE
  8
別途部材
  6
CONTINUOUS
 10
-128.742993
 20
13.399048
 11
-120.683738
 21
21.458305
  0
LINE
  8
別途部材
  6
CONTINUOUS
 10
-130.40966
 20
11.73238
 11
-28.742993
 21
11.73238
  0
LINE
  8
別途部材
  6
CONTINUOUS
 10
-130.80966
 20
11.33238
 11
-28.742993
 21
11.33238
  0
LINE
  8
別途部材
  6
CONTINUOUS
 10
73.323675
 20
11.33238
 11
72.923675
 21
11.73238
  0
LINE
  8
別途部材
  6
CONTINUOUS
 10
71.257007
 20
13.399048
 11
63.197753
 21
21.458305
  0
LINE
  8
別途部材
  6
CONTINUOUS
 10
72.923675
 20
11.73238
 11
-28.742993
 21
11.73238
  0
LINE
  8
別途部材
  6
CONTINUOUS
 10
73.323675
 20
11.33238
 11
-28.742993
 21
11.33238
  0
LINE
  8
別途部材
  6
CONTINUOUS
 10
72.923675
 20
11.73238
 11
72.923675
 21
28.399048
  0
LINE
  8
別途部材
  6
CONTINUOUS
 10
73.323675
 20
11.33238
 11
73.323675
 21
28.399048
  0
LINE
  8
別途部材
  6
CONTINUOUS
 10
-130.80966
 20
11.33238
 11
-130.80966
 21
28.399048
  0
LINE
  8
別途部材
  6
CONTINUOUS
 10
-130.40966
 20
11.73238
 11
-130.40966
 21
28.399048
  0
LINE
  8
別途部材
  6
CONTINUOUS
 10
-130.80966
 20
45.465715
 11
-130.40966
 21
45.065715
  0
LINE
  8
別途部材
  6
CONTINUOUS
 10
-128.742993
 20
43.399048
 11
-120.683738
 21
35.33979
  0
LINE
  8
別途部材
  6
CONTINUOUS
 10
-130.40966
 20
45.065715
 11
-28.742993
 21
45.065715
  0
LINE
  8
別途部材
  6
CONTINUOUS
 10
-130.80966
 20
45.465715
 11
-28.742993
 21
45.465715
  0
LINE
  8
別途部材
  6
CONTINUOUS
 10
73.323675
 20
45.465715
 11
72.923675
 21
45.065715
  0
LINE
  8
別途部材
  6
CONTINUOUS
 10
71.257007
 20
43.399048
 11
63.197753
 21
35.33979
  0
LINE
  8
別途部材
  6
CONTINUOUS
 10
72.923675
 20
45.065715
 11
-28.742993
 21
45.065715
  0
LINE
  8
別途部材
  6
CONTINUOUS
 10
73.323675
 20
45.465715
 11
-28.742993
 21
45.465715
  0
LINE
  8
別途部材
  6
CONTINUOUS
 10
72.923675
 20
45.065715
 11
72.923675
 21
28.399048
  0
LINE
  8
別途部材
  6
CONTINUOUS
 10
73.323675
 20
45.465715
 11
73.323675
 21
28.399048
  0
LINE
  8
別途部材
  6
CONTINUOUS
 10
-130.80966
 20
45.465715
 11
-130.80966
 21
28.399048
  0
LINE
  8
別途部材
  6
CONTINUOUS
 10
-130.40966
 20
45.065715
 11
-130.40966
 21
28.399048
  0
LINE
  8
別途部材
  6
CONTINUOUS
 62
    96
 10
160.790272
 20
11.73238
 11
161.790272
 21
11.33238
  0
LINE
  8
別途部材
  6
CONTINUOUS
 62
    96
 10
160.790272
 20
11.73238
 11
160.790272
 21
28.399048
  0
LINE
  8
別途部材
  6
CONTINUOUS
 10
161.790272
 20
11.33238
 11
161.790272
 21
28.399048
  0
LINE
  8
別途部材
  6
CONTINUOUS
 62
    96
 10
160.790272
 20
45.065715
 11
161.790272
 21
45.465715
  0
LINE
  8
別途部材
  6
CONTINUOUS
 62
    96
 10
160.790272
 20
45.065715
 11
160.790272
 21
28.399048
  0
LINE
  8
別途部材
  6
CONTINUOUS
 10
161.790272
 20
45.465715
 11
161.790272
 21
28.399048
  0
ARC
  8
別途部材
  6
CONTINUOUS
 10
170.123605
 20
28.399048
 40
17.666667
 50
121.890796
 51
238.109204
  0
INSERT
  2
*GRP_0014
  8
別途部材
  6
CONTINUOUS
 10
0.0
 20
0.0
  0
INSERT
  2
*GRP_0026
  8
別途部材
  6
DOT
 10
0.0
 20
0.0
  0
INSERT
  2
*GRP_0027
  8
別途部材
  6
DOT
 10
0.0
 20
0.0
  0
INSERT
  2
*GRP_0028
  8
別途部材
  6
DOT
 10
0.0
 20
0.0
  0
INSERT
  2
*GRP_0029
  8
別途部材
  6
DOT
 10
0.0
 20
0.0
  0
LINE
  8
St
  6
CONTINUOUS
 62
    47
 10
162.873558
 20
10.792235
 11
162.873558
 21
28.399048
  0
LINE
  8
St
  6
CONTINUOUS
 62
    47
 10
162.873558
 20
46.00586
 11
162.873558
 21
28.399048
  0
LINE
  8
St
  6
CONTINUOUS
 62
    47
 10
73.86382
 20
-81.707882
 11
-28.742993
 21
-81.707882
  0
LINE
  8
St
  6
CONTINUOUS
 62
    47
 10
-131.349805
 20
-81.707882
 11
-28.742993
 21
-81.707882
  0
ENDSEC
  0
EOF
