  0
SECTION
  2
HEADER
  9
$EXTMIN
 10
-210.0
 20
-148.5
  9
$EXTMAX
 10
210.0
 20
148.5
  9
$PDMODE
 70
    32
  9
$PDSIZE
 40
1.5
  9
$LTSCALE
 40
10.0
  0
ENDSEC
  0
SECTION
  2
TABLES
  0
TABLE
  2
LTYPE
 70
    15
  0
LTYPE
  2
CONTINUOUS
 70
    64
  3
実線
 72
    65
 73
     0
 40
0.0
  0
LTYPE
  2
DASHED
 70
    64
  3
破線A
 72
    65
 73
     2
 40
0.6
 49
0.4
 49
-0.2
  0
LTYPE
  2
DASHEDX2
 70
    64
  3
破線B
 72
    65
 73
     2
 40
1.3
 49
0.9
 49
-0.4
  0
LTYPE
  2
DASHDOT
 70
    64
  3
１点鎖線A
 72
    65
 73
     4
 40
0.5375
 49
0.375
 49
-0.05
 49
0.0625
 49
-0.05
  0
LTYPE
  2
DASHDOTX2
 70
    64
  3
１点鎖線B
 72
    65
 73
     4
 40
1.075
 49
0.75
 49
-0.1
 49
0.125
 49
-0.1
  0
LTYPE
  2
DIVIDE2
 70
    64
  3
２点鎖線A
 72
    65
 73
     6
 40
0.5125
 49
0.3
 49
-0.0375
 49
0.05
 49
-0.0375
 49
0.05
 49
-0.0375
  0
LTYPE
  2
DIVIDE
 70
    64
  3
２点鎖線B
 72
    65
 73
     6
 40
1.05
 49
0.55
 49
-0.1
 49
0.1
 49
-0.1
 49
0.1
 49
-0.1
  0
LTYPE
  2
DOT
 70
    64
  3
点線A
 72
    65
 73
     2
 40
0.1125
 49
0.0625
 49
-0.05
  0
LTYPE
  2
DOTX2
 70
    64
  3
点線B
 72
    65
 73
     2
 40
0.275
 49
0.15
 49
-0.125
  0
LTYPE
  2
CONTINUOUS
 70
    64
  3
実線
 72
    65
 73
     0
 40
0.0
  0
LTYPE
  2
CONTINUOUS
 70
    64
  3
実線
 72
    65
 73
     0
 40
0.0
  0
LTYPE
  2
CONTINUOUS
 70
    64
  3
実線
 72
    65
 73
     0
 40
0.0
  0
LTYPE
  2
CONTINUOUS
 70
    64
  3
実線
 72
    65
 73
     0
 40
0.0
  0
LTYPE
  2
CONTINUOUS
 70
    64
  3
実線
 72
    65
 73
     0
 40
0.0
  0
LTYPE
  2
CONTINUOUS
 70
    64
  3
実線
 72
    65
 73
     0
 40
0.0
  0
ENDTAB
  0
TABLE
  2
LAYER
 70
    34
  0
LAYER
  2
通り芯
 70
     0
 62
    15
  6
CONTINUOUS
  0
LAYER
  2
補助線
 70
     0
 62
    16
  6
DOT
  0
LAYER
  2
躯体
 70
     0
 62
    31
  6
CONTINUOUS
  0
LAYER
  2
型材
 70
     0
 62
    32
  6
CONTINUOUS
  0
LAYER
  2
型材断面
 70
     0
 62
    47
  6
CONTINUOUS
  0
LAYER
  2
ガラス
 70
     0
 62
    48
  6
CONTINUOUS
  0
LAYER
  2
ゴム等
 70
     0
 62
    63
  6
CONTINUOUS
  0
LAYER
  2
ボルト／ビス
 70
     0
 62
    64
  6
CONTINUOUS
  0
LAYER
  2
文字
 70
     0
 62
    79
  6
CONTINUOUS
  0
LAYER
  2
寸法
 70
     0
 62
    80
  6
CONTINUOUS
  0
LAYER
  2
ﾊｯﾁﾝｸﾞ
 70
     0
 62
    95
  6
CONTINUOUS
  0
LAYER
  2
別途部材
 70
     0
 62
    96
  6
CONTINUOUS
  0
LAYER
  2
曲げ物
 70
     0
 62
   111
  6
CONTINUOUS
  0
LAYER
  2
鉄骨等
 70
     0
 62
   112
  6
CONTINUOUS
  0
LAYER
  2
St
 70
     0
 62
   127
  6
CONTINUOUS
  0
LAYER
  2
その他部品等
 70
     0
 62
   128
  6
CONTINUOUS
  0
LAYER
  2
ｶﾞｽｹｯﾄ
 70
     0
 62
   143
  6
CONTINUOUS
  0
LAYER
  2
ｽｹｯﾁ
 70
     0
 62
    14
  6
CONTINUOUS
  0
LAYER
  2
0
 70
     0
 62
    17
  6
CONTINUOUS
  0
LAYER
  2
1
 70
     0
 62
    30
  6
CONTINUOUS
  0
LAYER
  2
4
 70
     0
 62
    33
  6
CONTINUOUS
  0
LAYER
  2
ﾚｲﾔ3
 70
     0
 62
    46
  6
CONTINUOUS
  0
LAYER
  2
外形線
 70
     0
 62
    49
  6
CONTINUOUS
  0
LAYER
  2
部品
 70
     0
 62
    14
  6
CONTINUOUS
  0
LAYER
  2
サッシ芯
 70
     0
 62
    17
  6
DASHDOTX2
  0
LAYER
  2
寸法線
 70
     0
 62
    62
  6
CONTINUOUS
  0
LAYER
  2
姿図外形線
 70
     0
 62
    65
  6
CONTINUOUS
  0
LAYER
  2
姿補助線
 70
     0
 62
    30
  6
CONTINUOUS
  0
LAYER
  2
透視線
 70
     0
 62
    78
  6
DOT
  0
LAYER
  2
用紙
 70
     0
 62
    81
  6
CONTINUOUS
  0
LAYER
  2
実線図枠
 70
     0
 62
    94
  6
CONTINUOUS
  0
LAYER
  2
補助図枠
 70
     0
 62
    97
  6
CONTINUOUS
  0
LAYER
  2
建具記号
 70
     0
 62
   110
  6
CONTINUOUS
  0
LAYER
  2
補助文字
 70
     0
 62
   113
  6
CONTINUOUS
  0
ENDTAB
  0
TABLE
  2
STYLE
 70
    10
  0
STYLE
  2
STANDARD
 70
     0
 40
1.0
 41
1.0
 42
1.0
 50
0.0
 71
     0
  3
TXT
  4
BIGFONT
  0
STYLE
  2
TATE
 70
     4
 40
1.0
 41
1.0
 42
1.0
 50
0.0
 71
     0
  3
TXT
  4
BIGFONT
  0
STYLE
  2
TextStyle03
 70
     0
 40
1.0
 41
1.0
 42
1.0
 50
0.0
 71
     0
  3
MONOTXT
  4
BIGFONT
  0
STYLE
  2
TextStyle04
 70
     0
 40
1.0
 41
1.0
 42
1.0
 50
0.0
 71
     0
  3
MONOTXT
  4
BIGFONT
  0
STYLE
  2
TextStyle05
 70
     0
 40
1.0
 41
1.0
 42
1.0
 50
0.0
 71
     0
  3
MONOTXT
  4
BIGFONT
  0
STYLE
  2
TextStyle06
 70
     0
 40
1.0
 41
1.0
 42
1.0
 50
0.0
 71
     0
  3
MONOTXT
  4
BIGFONT
  0
STYLE
  2
TextStyle07
 70
     0
 40
1.0
 41
1.0
 42
1.0
 50
0.0
 71
     0
  3
MONOTXT
  4
BIGFONT
  0
STYLE
  2
TextStyle08
 70
     0
 40
1.0
 41
1.0
 42
1.0
 50
0.0
 71
     0
  3
MONOTXT
  4
BIGFONT
  0
STYLE
  2
TextStyle09
 70
     0
 40
1.0
 41
1.0
 42
1.0
 50
0.0
 71
     0
  3
MONOTXT
  4
BIGFONT
  0
STYLE
  2
TextStyle10
 70
     0
 40
1.0
 41
1.0
 42
1.0
 50
0.0
 71
     0
  3
MONOTXT
  4
BIGFONT
  0
ENDTAB
  0
ENDSEC
  0
SECTION
  2
BLOCKS
  0
BLOCK
  2
*GRP_0001
 70
    65
 10
0.0
 20
0.0
  0
LINE
  8
型材断面
  6
CONTINUOUS
 10
195.0
 20
133.5
 11
195.0
 21
-133.5
  0
LINE
  8
型材断面
  6
CONTINUOUS
 10
195.0
 20
-133.5
 11
-185.0
 21
-133.5
  0
LINE
  8
型材断面
  6
CONTINUOUS
 10
-185.0
 20
-133.5
 11
-185.0
 21
133.5
  0
LINE
  8
型材断面
  6
CONTINUOUS
 10
195.0
 20
133.5
 11
-185.0
 21
133.5
  0
LINE
  8
型材断面
  6
CONTINUOUS
 10
145.0
 20
-133.5
 11
145.0
 21
-118.5
  0
LINE
  8
型材断面
  6
CONTINUOUS
 10
195.0
 20
-118.5
 11
145.0
 21
-118.5
  0
ENDBLK
  0
BLOCK
  2
*DIM_0002
 70
    65
 10
0.0
 20
0.0
  0
LINE
  8
寸法
  6
BYBLOCK
 62
     0
 10
26.016375
 20
-61.87628
 11
55.986025
 21
-61.87628
  0
LINE
  8
寸法
  6
BYBLOCK
 62
     0
 10
55.986025
 20
-70.209613
 11
55.986025
 21
-61.87628
  0
POINT
  8
寸法
 62
     0
 10
55.986025
 20
-70.209613
  0
POINT
  8
寸法
 62
     0
 10
55.986025
 20
-61.87628
  0
TEXT
  7
TextStyle03
  8
寸法
  6
CONTINUOUS
 62
     0
 10
55.65
 20
-68.5125
  1
250
 40
3.0
 50
90.0
 72
     5
 11
55.65
 21
-63.6375
  0
ENDBLK
  0
BLOCK
  2
*DIM_0003
 70
    65
 10
0.0
 20
0.0
  0
LINE
  8
寸法
  6
BYBLOCK
 62
     0
 10
-76.650292
 20
-13.511205
 11
-76.650292
 21
-13.121378
  0
LINE
  8
寸法
  6
BYBLOCK
 62
     0
 10
40.016375
 20
-13.121378
 11
-76.650292
 21
-13.121378
  0
POINT
  8
寸法
 62
     0
 10
40.016375
 20
-13.121378
  0
POINT
  8
寸法
 62
     0
 10
-76.650292
 20
-13.121378
  0
TEXT
  7
TextStyle03
  8
寸法
  6
CONTINUOUS
 62
     0
 10
-30.01875
 20
-12.75
  1
呼称寸法　3500
 40
3.0
 72
     5
 11
-6.58125
 21
-12.75
  0
ENDBLK
  0
BLOCK
  2
*DIM_0004
 70
    65
 10
0.0
 20
0.0
  0
LINE
  8
寸法
  6
BYBLOCK
 62
     0
 10
-59.983625
 20
19.183902
 11
-59.983625
 21
14.000657
  0
LINE
  8
寸法
  6
BYBLOCK
 62
     0
 10
23.34971
 20
19.183902
 11
23.34971
 21
14.000657
  0
LINE
  8
寸法
  6
BYBLOCK
 62
     0
 10
-59.983625
 20
14.000657
 11
23.34971
 21
14.000657
  0
POINT
  8
寸法
 62
     0
 10
-59.983625
 20
14.000657
  0
POINT
  8
寸法
 62
     0
 10
23.34971
 20
14.000657
  0
TEXT
  7
TextStyle03
  8
寸法
  6
CONTINUOUS
 62
     0
 10
-21.60625
 20
14.375
  1
2500
 40
3.0
 72
     5
 11
-15.04375
 21
14.375
  0
ENDBLK
  0
BLOCK
  2
*DIM_0005
 70
    65
 10
0.0
 20
0.0
  0
LINE
  8
寸法
  6
BYBLOCK
 62
     0
 10
121.216308
 20
38.814033
 11
121.216308
 21
68.369967
  0
LINE
  8
寸法
  6
BYBLOCK
 62
     0
 10
129.54964
 20
68.369967
 11
121.216308
 21
68.369967
  0
POINT
  8
寸法
 62
     0
 10
129.54964
 20
68.369967
  0
POINT
  8
寸法
 62
     0
 10
121.216308
 20
68.369967
  0
TEXT
  7
TextStyle03
  8
寸法
  6
CONTINUOUS
 62
     0
 10
122.9625
 20
68.725
  1
250
 40
3.0
 72
     5
 11
127.8375
 21
68.725
  0
ENDBLK
  0
BLOCK
  2
*DIM_0006
 70
    65
 10
0.0
 20
0.0
  0
LINE
  8
寸法
  6
BYBLOCK
 62
     0
 10
74.036025
 20
22.814033
 11
74.036025
 21
52.814033
  0
POINT
  8
寸法
 62
     0
 10
74.036025
 20
22.814033
  0
POINT
  8
寸法
 62
     0
 10
74.036025
 20
52.814033
  0
TEXT
  7
TextStyle03
  8
寸法
  6
CONTINUOUS
 62
     0
 10
73.7
 20
26.9
  1
呼称寸法　900
 40
3.0
 50
90.0
 72
     5
 11
73.7
 21
48.65
  0
ENDBLK
  0
BLOCK
  2
*DIM_0007
 70
    65
 10
0.0
 20
0.0
  0
LINE
  8
寸法
  6
BYBLOCK
 62
     0
 10
130.132925
 20
20.20722
 11
74.036025
 21
20.20722
  0
LINE
  8
寸法
  6
BYBLOCK
 62
     0
 10
74.036025
 20
22.814033
 11
74.036025
 21
20.20722
  0
POINT
  8
寸法
 62
     0
 10
74.036025
 20
22.814033
  0
POINT
  8
寸法
 62
     0
 10
74.036025
 20
20.20722
  0
TEXT
  7
TextStyle03
  8
寸法
  6
CONTINUOUS
 62
     0
 10
73.625
 20
11.46875
  1
78.2
 40
3.0
 50
90.0
 72
     5
 11
73.625
 21
18.03125
  0
ENDBLK
  0
BLOCK
  2
*DIM_0008
 70
    65
 10
0.0
 20
0.0
  0
LINE
  8
寸法
  6
BYBLOCK
 62
     0
 10
130.132925
 20
55.420845
 11
74.036025
 21
55.420845
  0
LINE
  8
寸法
  6
BYBLOCK
 62
     0
 10
74.036025
 20
52.814033
 11
74.036025
 21
55.420845
  0
POINT
  8
寸法
 62
     0
 10
74.036025
 20
52.814033
  0
POINT
  8
寸法
 62
     0
 10
74.036025
 20
55.420845
  0
TEXT
  7
TextStyle03
  8
寸法
  6
CONTINUOUS
 62
     0
 10
73.625
 20
57.56875
  1
78.2
 40
3.0
 50
90.0
 72
     5
 11
73.625
 21
64.13125
  0
ENDBLK
  0
BLOCK
  2
*DIM_0009
 70
    65
 10
0.0
 20
0.0
  0
LINE
  8
寸法
  6
BYBLOCK
 62
     0
 10
129.54964
 20
55.4807
 11
129.54964
 21
68.369967
  0
LINE
  8
寸法
  6
BYBLOCK
 62
     0
 10
131.632925
 20
56.420845
 11
131.632925
 21
68.369967
  0
LINE
  8
寸法
  6
BYBLOCK
 62
     0
 10
129.54964
 20
68.369967
 11
131.632925
 21
68.369967
  0
POINT
  8
寸法
 62
     0
 10
129.54964
 20
68.369967
  0
POINT
  8
寸法
 62
     0
 10
131.632925
 20
68.369967
  0
TEXT
  7
TextStyle03
  8
寸法
  6
CONTINUOUS
 62
     0
 10
134.04375
 20
68.725
  1
62.5
 40
3.0
 72
     5
 11
140.60625
 21
68.725
  0
ENDBLK
  0
BLOCK
  2
*DIM_0010
 70
    65
 10
0.0
 20
0.0
  0
LINE
  8
寸法
  6
BYBLOCK
 62
     0
 10
42.683043
 20
-70.209613
 11
55.986025
 21
-70.209613
  0
LINE
  8
寸法
  6
BYBLOCK
 62
     0
 10
43.623187
 20
-72.292897
 11
55.986025
 21
-72.292897
  0
LINE
  8
寸法
  6
BYBLOCK
 62
     0
 10
55.986025
 20
-70.209613
 11
55.986025
 21
-72.292897
  0
POINT
  8
寸法
 62
     0
 10
55.986025
 20
-70.209613
  0
POINT
  8
寸法
 62
     0
 10
55.986025
 20
-72.292897
  0
TEXT
  7
TextStyle03
  8
寸法
  6
CONTINUOUS
 62
     0
 10
55.575
 20
-81.30625
  1
62.5
 40
3.0
 50
90.0
 72
     5
 11
55.575
 21
-74.74375
  0
ENDBLK
  0
BLOCK
  2
*DIM_0011
 70
    65
 10
0.0
 20
0.0
  0
LINE
  8
寸法
  6
BYBLOCK
 62
     0
 10
42.623187
 20
-70.792897
 11
42.623187
 21
-13.121378
  0
LINE
  8
寸法
  6
BYBLOCK
 62
     0
 10
40.016375
 20
-13.121378
 11
42.623187
 21
-13.121378
  0
POINT
  8
寸法
 62
     0
 10
40.016375
 20
-13.121378
  0
POINT
  8
寸法
 62
     0
 10
42.623187
 20
-13.121378
  0
TEXT
  7
TextStyle03
  8
寸法
  6
CONTINUOUS
 62
     0
 10
44.74375
 20
-12.75
  1
78.2
 40
3.0
 72
     5
 11
51.30625
 21
-12.75
  0
ENDBLK
  0
BLOCK
  2
*DIM_0012
 70
    65
 10
0.0
 20
0.0
  0
LINE
  8
寸法
  6
BYBLOCK
 62
     0
 10
-79.257103
 20
-70.792897
 11
-79.257103
 21
-13.121378
  0
LINE
  8
寸法
  6
BYBLOCK
 62
     0
 10
-76.650292
 20
-13.121378
 11
-79.257103
 21
-13.121378
  0
POINT
  8
寸法
 62
     0
 10
-76.650292
 20
-13.121378
  0
POINT
  8
寸法
 62
     0
 10
-79.257103
 20
-13.121378
  0
TEXT
  7
TextStyle03
  8
寸法
  6
CONTINUOUS
 62
     0
 10
-88.00625
 20
-12.75
  1
78.2
 40
3.0
 72
     5
 11
-81.44375
 21
-12.75
  0
ENDBLK
  0
BLOCK
  2
*GRP_0013
 70
    65
 10
0.0
 20
0.0
  0
LINE
  8
別途部材
  6
CONTINUOUS
 62
    96
 10
-78.316957
 20
-70.209613
 11
-78.716957
 21
-71.209613
  0
ARC
  8
別途部材
  6
CONTINUOUS
 10
-61.650294
 20
-79.542948
 40
17.666667
 50
90.0
 51
148.109204
  0
LINE
  8
別途部材
  6
CONTINUOUS
 62
    96
 10
-78.316957
 20
-70.209613
 11
-18.316957
 21
-70.209613
  0
LINE
  8
別途部材
  6
CONTINUOUS
 10
-78.716957
 20
-71.209613
 11
-18.316957
 21
-71.209613
  0
LINE
  8
別途部材
  6
CONTINUOUS
 10
-18.816957
 20
-60.87628
 11
-19.816957
 21
-61.87628
  0
LINE
  8
別途部材
  6
CONTINUOUS
 10
-20.816957
 20
-61.87628
 11
-21.816957
 21
-60.87628
  0
LINE
  8
別途部材
  6
CONTINUOUS
 10
-22.816957
 20
-60.87628
 11
-23.816957
 21
-61.87628
  0
LINE
  8
別途部材
  6
CONTINUOUS
 10
-21.816957
 20
-60.87628
 11
-22.816957
 21
-60.87628
  0
LINE
  8
別途部材
  6
CONTINUOUS
 10
-18.816957
 20
-60.87628
 11
-18.316957
 21
-60.87628
  0
LINE
  8
別途部材
  6
CONTINUOUS
 10
-24.816957
 20
-61.87628
 11
-25.816957
 21
-60.87628
  0
LINE
  8
別途部材
  6
CONTINUOUS
 10
-26.816957
 20
-60.87628
 11
-27.816957
 21
-61.87628
  0
LINE
  8
別途部材
  6
CONTINUOUS
 10
-25.816957
 20
-60.87628
 11
-26.816957
 21
-60.87628
  0
LINE
  8
別途部材
  6
CONTINUOUS
 10
-28.816957
 20
-61.87628
 11
-29.816957
 21
-60.87628
  0
LINE
  8
別途部材
  6
CONTINUOUS
 10
-30.816957
 20
-60.87628
 11
-31.816957
 21
-61.87628
  0
LINE
  8
別途部材
  6
CONTINUOUS
 10
-29.816957
 20
-60.87628
 11
-30.816957
 21
-60.87628
  0
LINE
  8
別途部材
  6
CONTINUOUS
 10
-32.816957
 20
-61.87628
 11
-33.816957
 21
-60.87628
  0
LINE
  8
別途部材
  6
CONTINUOUS
 10
-34.816957
 20
-60.87628
 11
-35.816957
 21
-61.87628
  0
LINE
  8
別途部材
  6
CONTINUOUS
 10
-33.816957
 20
-60.87628
 11
-34.816957
 21
-60.87628
  0
LINE
  8
別途部材
  6
CONTINUOUS
 10
-36.816957
 20
-61.87628
 11
-37.816957
 21
-60.87628
  0
LINE
  8
別途部材
  6
CONTINUOUS
 10
-38.816957
 20
-60.87628
 11
-39.816957
 21
-61.87628
  0
LINE
  8
別途部材
  6
CONTINUOUS
 10
-37.816957
 20
-60.87628
 11
-38.816957
 21
-60.87628
  0
LINE
  8
別途部材
  6
CONTINUOUS
 10
-40.816957
 20
-61.87628
 11
-41.816957
 21
-60.87628
  0
LINE
  8
別途部材
  6
CONTINUOUS
 10
-42.816957
 20
-60.87628
 11
-43.816957
 21
-61.87628
  0
LINE
  8
別途部材
  6
CONTINUOUS
 10
-41.816957
 20
-60.87628
 11
-42.816957
 21
-60.87628
  0
LINE
  8
別途部材
  6
CONTINUOUS
 10
-44.816957
 20
-61.87628
 11
-45.816957
 21
-60.87628
  0
LINE
  8
別途部材
  6
CONTINUOUS
 10
-46.816957
 20
-60.87628
 11
-47.816957
 21
-61.87628
  0
LINE
  8
別途部材
  6
CONTINUOUS
 10
-45.816957
 20
-60.87628
 11
-46.816957
 21
-60.87628
  0
LINE
  8
別途部材
  6
CONTINUOUS
 10
-48.816957
 20
-61.87628
 11
-49.816957
 21
-60.87628
  0
LINE
  8
別途部材
  6
CONTINUOUS
 10
-50.816957
 20
-60.87628
 11
-51.816957
 21
-61.87628
  0
LINE
  8
別途部材
  6
CONTINUOUS
 10
-49.816957
 20
-60.87628
 11
-50.816957
 21
-60.87628
  0
LINE
  8
別途部材
  6
CONTINUOUS
 10
-52.816957
 20
-61.87628
 11
-53.816957
 21
-60.87628
  0
LINE
  8
別途部材
  6
CONTINUOUS
 10
-54.816957
 20
-60.87628
 11
-55.816957
 21
-61.87628
  0
LINE
  8
別途部材
  6
CONTINUOUS
 10
-53.816957
 20
-60.87628
 11
-54.816957
 21
-60.87628
  0
LINE
  8
別途部材
  6
CONTINUOUS
 10
-56.816957
 20
-61.87628
 11
-57.816957
 21
-60.87628
  0
LINE
  8
別途部材
  6
CONTINUOUS
 10
-58.816957
 20
-60.87628
 11
-59.816957
 21
-61.87628
  0
LINE
  8
別途部材
  6
CONTINUOUS
 10
-57.816957
 20
-60.87628
 11
-58.816957
 21
-60.87628
  0
LINE
  8
別途部材
  6
CONTINUOUS
 10
-55.816957
 20
-61.87628
 11
-56.816957
 21
-61.87628
  0
LINE
  8
別途部材
  6
CONTINUOUS
 10
-51.816957
 20
-61.87628
 11
-52.816957
 21
-61.87628
  0
LINE
  8
別途部材
  6
CONTINUOUS
 10
-47.816957
 20
-61.87628
 11
-48.816957
 21
-61.87628
  0
LINE
  8
別途部材
  6
CONTINUOUS
 10
-43.816957
 20
-61.87628
 11
-44.816957
 21
-61.87628
  0
LINE
  8
別途部材
  6
CONTINUOUS
 10
-39.816957
 20
-61.87628
 11
-40.816957
 21
-61.87628
  0
LINE
  8
別途部材
  6
CONTINUOUS
 10
-35.816957
 20
-61.87628
 11
-36.816957
 21
-61.87628
  0
LINE
  8
別途部材
  6
CONTINUOUS
 10
-31.816957
 20
-61.87628
 11
-32.816957
 21
-61.87628
  0
LINE
  8
別途部材
  6
CONTINUOUS
 10
-27.816957
 20
-61.87628
 11
-28.816957
 21
-61.87628
  0
LINE
  8
別途部材
  6
CONTINUOUS
 10
-23.816957
 20
-61.87628
 11
-24.816957
 21
-61.87628
  0
LINE
  8
別途部材
  6
CONTINUOUS
 10
-20.816957
 20
-61.87628
 11
-19.816957
 21
-61.87628
  0
LINE
  8
別途部材
  6
CONTINUOUS
 10
-58.816957
 20
-60.87628
 11
-58.816957
 21
-70.209613
  0
LINE
  8
別途部材
  6
CONTINUOUS
 10
-56.816957
 20
-61.87628
 11
-56.816957
 21
-70.209613
  0
LINE
  8
別途部材
  6
CONTINUOUS
 10
-59.816957
 20
-61.87628
 11
-59.816957
 21
-70.209613
  0
LINE
  8
別途部材
  6
CONTINUOUS
 10
-57.816957
 20
-60.87628
 11
-57.816957
 21
-70.209613
  0
LINE
  8
別途部材
  6
CONTINUOUS
 10
-54.816957
 20
-60.87628
 11
-54.816957
 21
-70.209613
  0
LINE
  8
別途部材
  6
CONTINUOUS
 10
-55.816957
 20
-61.87628
 11
-55.816957
 21
-70.209613
  0
LINE
  8
別途部材
  6
CONTINUOUS
 10
-53.816957
 20
-60.87628
 11
-53.816957
 21
-70.209613
  0
LINE
  8
別途部材
  6
CONTINUOUS
 10
-52.816957
 20
-61.87628
 11
-52.816957
 21
-70.209613
  0
LINE
  8
別途部材
  6
CONTINUOUS
 10
-51.816957
 20
-61.87628
 11
-51.816957
 21
-70.209613
  0
LINE
  8
別途部材
  6
CONTINUOUS
 10
-50.816957
 20
-60.87628
 11
-50.816957
 21
-70.209613
  0
LINE
  8
別途部材
  6
CONTINUOUS
 10
-48.816957
 20
-61.87628
 11
-48.816957
 21
-70.209613
  0
LINE
  8
別途部材
  6
CONTINUOUS
 10
-49.816957
 20
-60.87628
 11
-49.816957
 21
-70.209613
  0
LINE
  8
別途部材
  6
CONTINUOUS
 10
-46.816957
 20
-60.87628
 11
-46.816957
 21
-70.209613
  0
LINE
  8
別途部材
  6
CONTINUOUS
 10
-47.816957
 20
-61.87628
 11
-47.816957
 21
-70.209613
  0
LINE
  8
別途部材
  6
CONTINUOUS
 10
-43.816957
 20
-61.87628
 11
-43.816957
 21
-70.209613
  0
LINE
  8
別途部材
  6
CONTINUOUS
 10
-42.816957
 20
-60.87628
 11
-42.816957
 21
-70.209613
  0
LINE
  8
別途部材
  6
CONTINUOUS
 10
-41.816957
 20
-60.87628
 11
-41.816957
 21
-70.209613
  0
LINE
  8
別途部材
  6
CONTINUOUS
 10
-44.816957
 20
-61.87628
 11
-44.816957
 21
-70.209613
  0
LINE
  8
別途部材
  6
CONTINUOUS
 10
-45.816957
 20
-60.87628
 11
-45.816957
 21
-70.209613
  0
LINE
  8
別途部材
  6
CONTINUOUS
 10
-37.816957
 20
-60.87628
 11
-37.816957
 21
-70.209613
  0
LINE
  8
別途部材
  6
CONTINUOUS
 10
-39.816957
 20
-61.87628
 11
-39.816957
 21
-70.209613
  0
LINE
  8
別途部材
  6
CONTINUOUS
 10
-40.816957
 20
-61.87628
 11
-40.816957
 21
-70.209613
  0
LINE
  8
別途部材
  6
CONTINUOUS
 10
-38.816957
 20
-60.87628
 11
-38.816957
 21
-70.209613
  0
LINE
  8
別途部材
  6
CONTINUOUS
 10
-36.816957
 20
-61.87628
 11
-36.816957
 21
-70.209613
  0
LINE
  8
別途部材
  6
CONTINUOUS
 10
-34.816957
 20
-60.87628
 11
-34.816957
 21
-70.209613
  0
LINE
  8
別途部材
  6
CONTINUOUS
 10
-33.816957
 20
-60.87628
 11
-33.816957
 21
-70.209613
  0
LINE
  8
別途部材
  6
CONTINUOUS
 10
-31.816957
 20
-61.87628
 11
-31.816957
 21
-70.209613
  0
LINE
  8
別途部材
  6
CONTINUOUS
 10
-32.816957
 20
-61.87628
 11
-32.816957
 21
-70.209613
  0
LINE
  8
別途部材
  6
CONTINUOUS
 10
-35.816957
 20
-61.87628
 11
-35.816957
 21
-70.209613
  0
LINE
  8
別途部材
  6
CONTINUOUS
 10
-30.816957
 20
-60.87628
 11
-30.816957
 21
-70.209613
  0
LINE
  8
別途部材
  6
CONTINUOUS
 10
-28.816957
 20
-61.87628
 11
-28.816957
 21
-70.209613
  0
LINE
  8
別途部材
  6
CONTINUOUS
 10
-29.816957
 20
-60.87628
 11
-29.816957
 21
-70.209613
  0
LINE
  8
別途部材
  6
CONTINUOUS
 10
-27.816957
 20
-61.87628
 11
-27.816957
 21
-70.209613
  0
LINE
  8
別途部材
  6
CONTINUOUS
 10
-26.816957
 20
-60.87628
 11
-26.816957
 21
-70.209613
  0
LINE
  8
別途部材
  6
CONTINUOUS
 10
-24.816957
 20
-61.87628
 11
-24.816957
 21
-70.209613
  0
LINE
  8
別途部材
  6
CONTINUOUS
 10
-25.816957
 20
-60.87628
 11
-25.816957
 21
-70.209613
  0
LINE
  8
別途部材
  6
CONTINUOUS
 10
-23.816957
 20
-61.87628
 11
-23.816957
 21
-70.209613
  0
LINE
  8
別途部材
  6
CONTINUOUS
 10
-22.816957
 20
-60.87628
 11
-22.816957
 21
-70.209613
  0
LINE
  8
別途部材
  6
CONTINUOUS
 10
-20.816957
 20
-61.87628
 11
-20.816957
 21
-70.209613
  0
LINE
  8
別途部材
  6
CONTINUOUS
 10
-21.816957
 20
-60.87628
 11
-21.816957
 21
-70.209613
  0
LINE
  8
別途部材
  6
CONTINUOUS
 10
-19.816957
 20
-61.87628
 11
-19.816957
 21
-70.209613
  0
LINE
  8
別途部材
  6
CONTINUOUS
 10
-18.816957
 20
-60.87628
 11
-18.816957
 21
-70.209613
  0
LINE
  8
別途部材
  6
CONTINUOUS
 10
-59.816957
 20
-61.87628
 11
-61.65029
 21
-61.87628
  0
LINE
  8
別途部材
  6
CONTINUOUS
 62
    96
 10
41.683043
 20
-70.209613
 11
42.083043
 21
-71.209613
  0
ARC
  8
別途部材
  6
CONTINUOUS
 10
25.016379
 20
-79.542948
 40
17.666667
 50
31.890796
 51
90.0
  0
LINE
  8
別途部材
  6
CONTINUOUS
 62
    96
 10
41.683043
 20
-70.209613
 11
-18.316957
 21
-70.209613
  0
LINE
  8
別途部材
  6
CONTINUOUS
 10
42.083043
 20
-71.209613
 11
-18.316957
 21
-71.209613
  0
LINE
  8
別途部材
  6
CONTINUOUS
 10
-17.816957
 20
-60.87628
 11
-16.816957
 21
-61.87628
  0
LINE
  8
別途部材
  6
CONTINUOUS
 10
-15.816957
 20
-61.87628
 11
-14.816957
 21
-60.87628
  0
LINE
  8
別途部材
  6
CONTINUOUS
 10
-13.816957
 20
-60.87628
 11
-12.816957
 21
-61.87628
  0
LINE
  8
別途部材
  6
CONTINUOUS
 10
-14.816957
 20
-60.87628
 11
-13.816957
 21
-60.87628
  0
LINE
  8
別途部材
  6
CONTINUOUS
 10
-17.816957
 20
-60.87628
 11
-18.316957
 21
-60.87628
  0
LINE
  8
別途部材
  6
CONTINUOUS
 10
-11.816957
 20
-61.87628
 11
-10.816957
 21
-60.87628
  0
LINE
  8
別途部材
  6
CONTINUOUS
 10
-9.816957
 20
-60.87628
 11
-8.816957
 21
-61.87628
  0
LINE
  8
別途部材
  6
CONTINUOUS
 10
-10.816957
 20
-60.87628
 11
-9.816957
 21
-60.87628
  0
LINE
  8
別途部材
  6
CONTINUOUS
 10
-7.816957
 20
-61.87628
 11
-6.816957
 21
-60.87628
  0
LINE
  8
別途部材
  6
CONTINUOUS
 10
-5.816957
 20
-60.87628
 11
-4.816957
 21
-61.87628
  0
LINE
  8
別途部材
  6
CONTINUOUS
 10
-6.816957
 20
-60.87628
 11
-5.816957
 21
-60.87628
  0
LINE
  8
別途部材
  6
CONTINUOUS
 10
-3.816957
 20
-61.87628
 11
-2.816957
 21
-60.87628
  0
LINE
  8
別途部材
  6
CONTINUOUS
 10
-1.816957
 20
-60.87628
 11
-0.816957
 21
-61.87628
  0
LINE
  8
別途部材
  6
CONTINUOUS
 10
-2.816957
 20
-60.87628
 11
-1.816957
 21
-60.87628
  0
LINE
  8
別途部材
  6
CONTINUOUS
 10
0.183043
 20
-61.87628
 11
1.183043
 21
-60.87628
  0
LINE
  8
別途部材
  6
CONTINUOUS
 10
2.183043
 20
-60.87628
 11
3.183043
 21
-61.87628
  0
LINE
  8
別途部材
  6
CONTINUOUS
 10
1.183043
 20
-60.87628
 11
2.183043
 21
-60.87628
  0
LINE
  8
別途部材
  6
CONTINUOUS
 10
4.183043
 20
-61.87628
 11
5.183043
 21
-60.87628
  0
LINE
  8
別途部材
  6
CONTINUOUS
 10
6.183043
 20
-60.87628
 11
7.183043
 21
-61.87628
  0
LINE
  8
別途部材
  6
CONTINUOUS
 10
5.183043
 20
-60.87628
 11
6.183043
 21
-60.87628
  0
LINE
  8
別途部材
  6
CONTINUOUS
 10
8.183043
 20
-61.87628
 11
9.183043
 21
-60.87628
  0
LINE
  8
別途部材
  6
CONTINUOUS
 10
10.183043
 20
-60.87628
 11
11.183043
 21
-61.87628
  0
LINE
  8
別途部材
  6
CONTINUOUS
 10
9.183043
 20
-60.87628
 11
10.183043
 21
-60.87628
  0
LINE
  8
別途部材
  6
CONTINUOUS
 10
12.183043
 20
-61.87628
 11
13.183043
 21
-60.87628
  0
LINE
  8
別途部材
  6
CONTINUOUS
 10
14.183043
 20
-60.87628
 11
15.183043
 21
-61.87628
  0
LINE
  8
別途部材
  6
CONTINUOUS
 10
13.183043
 20
-60.87628
 11
14.183043
 21
-60.87628
  0
LINE
  8
別途部材
  6
CONTINUOUS
 10
16.183043
 20
-61.87628
 11
17.183043
 21
-60.87628
  0
LINE
  8
別途部材
  6
CONTINUOUS
 10
18.183043
 20
-60.87628
 11
19.183043
 21
-61.87628
  0
LINE
  8
別途部材
  6
CONTINUOUS
 10
17.183043
 20
-60.87628
 11
18.183043
 21
-60.87628
  0
LINE
  8
別途部材
  6
CONTINUOUS
 10
20.183043
 20
-61.87628
 11
21.183043
 21
-60.87628
  0
LINE
  8
別途部材
  6
CONTINUOUS
 10
22.183043
 20
-60.87628
 11
23.183043
 21
-61.87628
  0
LINE
  8
別途部材
  6
CONTINUOUS
 10
21.183043
 20
-60.87628
 11
22.183043
 21
-60.87628
  0
LINE
  8
別途部材
  6
CONTINUOUS
 10
19.183043
 20
-61.87628
 11
20.183043
 21
-61.87628
  0
LINE
  8
別途部材
  6
CONTINUOUS
 10
15.183043
 20
-61.87628
 11
16.183043
 21
-61.87628
  0
LINE
  8
別途部材
  6
CONTINUOUS
 10
11.183043
 20
-61.87628
 11
12.183043
 21
-61.87628
  0
LINE
  8
別途部材
  6
CONTINUOUS
 10
7.183043
 20
-61.87628
 11
8.183043
 21
-61.87628
  0
LINE
  8
別途部材
  6
CONTINUOUS
 10
3.183043
 20
-61.87628
 11
4.183043
 21
-61.87628
  0
LINE
  8
別途部材
  6
CONTINUOUS
 10
-0.816957
 20
-61.87628
 11
0.183043
 21
-61.87628
  0
LINE
  8
別途部材
  6
CONTINUOUS
 10
-4.816957
 20
-61.87628
 11
-3.816957
 21
-61.87628
  0
LINE
  8
別途部材
  6
CONTINUOUS
 10
-8.816957
 20
-61.87628
 11
-7.816957
 21
-61.87628
  0
LINE
  8
別途部材
  6
CONTINUOUS
 10
-12.816957
 20
-61.87628
 11
-11.816957
 21
-61.87628
  0
LINE
  8
別途部材
  6
CONTINUOUS
 10
-15.816957
 20
-61.87628
 11
-16.816957
 21
-61.87628
  0
LINE
  8
別途部材
  6
CONTINUOUS
 10
22.183043
 20
-60.87628
 11
22.183043
 21
-70.209613
  0
LINE
  8
別途部材
  6
CONTINUOUS
 10
20.183043
 20
-61.87628
 11
20.183043
 21
-70.209613
  0
LINE
  8
別途部材
  6
CONTINUOUS
 10
23.183043
 20
-61.87628
 11
23.183043
 21
-70.209613
  0
LINE
  8
別途部材
  6
CONTINUOUS
 10
21.183043
 20
-60.87628
 11
21.183043
 21
-70.209613
  0
LINE
  8
別途部材
  6
CONTINUOUS
 10
18.183043
 20
-60.87628
 11
18.183043
 21
-70.209613
  0
LINE
  8
別途部材
  6
CONTINUOUS
 10
19.183043
 20
-61.87628
 11
19.183043
 21
-70.209613
  0
LINE
  8
別途部材
  6
CONTINUOUS
 10
17.183043
 20
-60.87628
 11
17.183043
 21
-70.209613
  0
LINE
  8
別途部材
  6
CONTINUOUS
 10
16.183043
 20
-61.87628
 11
16.183043
 21
-70.209613
  0
LINE
  8
別途部材
  6
CONTINUOUS
 10
15.183043
 20
-61.87628
 11
15.183043
 21
-70.209613
  0
LINE
  8
別途部材
  6
CONTINUOUS
 10
14.183043
 20
-60.87628
 11
14.183043
 21
-70.209613
  0
LINE
  8
別途部材
  6
CONTINUOUS
 10
12.183043
 20
-61.87628
 11
12.183043
 21
-70.209613
  0
LINE
  8
別途部材
  6
CONTINUOUS
 10
13.183043
 20
-60.87628
 11
13.183043
 21
-70.209613
  0
LINE
  8
別途部材
  6
CONTINUOUS
 10
10.183043
 20
-60.87628
 11
10.183043
 21
-70.209613
  0
LINE
  8
別途部材
  6
CONTINUOUS
 10
11.183043
 20
-61.87628
 11
11.183043
 21
-70.209613
  0
LINE
  8
別途部材
  6
CONTINUOUS
 10
7.183043
 20
-61.87628
 11
7.183043
 21
-70.209613
  0
LINE
  8
別途部材
  6
CONTINUOUS
 10
6.183043
 20
-60.87628
 11
6.183043
 21
-70.209613
  0
LINE
  8
別途部材
  6
CONTINUOUS
 10
5.183043
 20
-60.87628
 11
5.183043
 21
-70.209613
  0
LINE
  8
別途部材
  6
CONTINUOUS
 10
8.183043
 20
-61.87628
 11
8.183043
 21
-70.209613
  0
LINE
  8
別途部材
  6
CONTINUOUS
 10
9.183043
 20
-60.87628
 11
9.183043
 21
-70.209613
  0
LINE
  8
別途部材
  6
CONTINUOUS
 10
1.183043
 20
-60.87628
 11
1.183043
 21
-70.209613
  0
LINE
  8
別途部材
  6
CONTINUOUS
 10
3.183043
 20
-61.87628
 11
3.183043
 21
-70.209613
  0
LINE
  8
別途部材
  6
CONTINUOUS
 10
4.183043
 20
-61.87628
 11
4.183043
 21
-70.209613
  0
LINE
  8
別途部材
  6
CONTINUOUS
 10
2.183043
 20
-60.87628
 11
2.183043
 21
-70.209613
  0
LINE
  8
別途部材
  6
CONTINUOUS
 10
0.183043
 20
-61.87628
 11
0.183043
 21
-70.209613
  0
LINE
  8
別途部材
  6
CONTINUOUS
 10
-1.816957
 20
-60.87628
 11
-1.816957
 21
-70.209613
  0
LINE
  8
別途部材
  6
CONTINUOUS
 10
-2.816957
 20
-60.87628
 11
-2.816957
 21
-70.209613
  0
LINE
  8
別途部材
  6
CONTINUOUS
 10
-4.816957
 20
-61.87628
 11
-4.816957
 21
-70.209613
  0
LINE
  8
別途部材
  6
CONTINUOUS
 10
-3.816957
 20
-61.87628
 11
-3.816957
 21
-70.209613
  0
LINE
  8
別途部材
  6
CONTINUOUS
 10
-0.816957
 20
-61.87628
 11
-0.816957
 21
-70.209613
  0
LINE
  8
別途部材
  6
CONTINUOUS
 10
-5.816957
 20
-60.87628
 11
-5.816957
 21
-70.209613
  0
LINE
  8
別途部材
  6
CONTINUOUS
 10
-7.816957
 20
-61.87628
 11
-7.816957
 21
-70.209613
  0
LINE
  8
別途部材
  6
CONTINUOUS
 10
-6.816957
 20
-60.87628
 11
-6.816957
 21
-70.209613
  0
LINE
  8
別途部材
  6
CONTINUOUS
 10
-8.816957
 20
-61.87628
 11
-8.816957
 21
-70.209613
  0
LINE
  8
別途部材
  6
CONTINUOUS
 10
-9.816957
 20
-60.87628
 11
-9.816957
 21
-70.209613
  0
LINE
  8
別途部材
  6
CONTINUOUS
 10
-11.816957
 20
-61.87628
 11
-11.816957
 21
-70.209613
  0
LINE
  8
別途部材
  6
CONTINUOUS
 10
-10.816957
 20
-60.87628
 11
-10.816957
 21
-70.209613
  0
LINE
  8
別途部材
  6
CONTINUOUS
 10
-12.816957
 20
-61.87628
 11
-12.816957
 21
-70.209613
  0
LINE
  8
別途部材
  6
CONTINUOUS
 10
-13.816957
 20
-60.87628
 11
-13.816957
 21
-70.209613
  0
LINE
  8
別途部材
  6
CONTINUOUS
 10
-15.816957
 20
-61.87628
 11
-15.816957
 21
-70.209613
  0
LINE
  8
別途部材
  6
CONTINUOUS
 10
-14.816957
 20
-60.87628
 11
-14.816957
 21
-70.209613
  0
LINE
  8
別途部材
  6
CONTINUOUS
 10
-16.816957
 20
-61.87628
 11
-16.816957
 21
-70.209613
  0
LINE
  8
別途部材
  6
CONTINUOUS
 10
-17.816957
 20
-60.87628
 11
-17.816957
 21
-70.209613
  0
LINE
  8
別途部材
  6
CONTINUOUS
 10
23.183043
 20
-61.87628
 11
25.016375
 21
-61.87628
  0
ENDBLK
  0
BLOCK
  2
*DIM_0014
 70
    65
 10
0.0
 20
0.0
  0
LINE
  8
寸法
  6
BYBLOCK
 62
     0
 10
145.328765
 20
-87.823622
 11
155.941423
 21
-87.823622
  0
LINE
  8
寸法
  6
BYBLOCK
 62
     0
 10
145.328765
 20
-58.49029
 11
155.941423
 21
-58.49029
  0
LINE
  8
寸法
  6
BYBLOCK
 62
     0
 10
155.941423
 20
-87.823622
 11
155.941423
 21
-58.49029
  0
POINT
  8
寸法
 62
     0
 10
155.941423
 20
-87.823622
  0
POINT
  8
寸法
 62
     0
 10
155.941423
 20
-58.49029
  0
TEXT
  7
TextStyle03
  8
寸法
  6
CONTINUOUS
 62
     0
 10
155.55
 20
-75.6125
  1
880
 40
3.0
 50
90.0
 72
     5
 11
155.55
 21
-70.7375
  0
ENDBLK
  0
BLOCK
  2
*DIM_0015
 70
    65
 10
0.0
 20
0.0
  0
LINE
  8
寸法
  6
BYBLOCK
 62
     0
 10
-79.650292
 20
47.814033
 11
-92.94313
 21
47.814033
  0
LINE
  8
寸法
  6
BYBLOCK
 62
     0
 10
-79.650292
 20
27.814033
 11
-92.94313
 21
27.814033
  0
LINE
  8
寸法
  6
BYBLOCK
 62
     0
 10
-92.94313
 20
47.814033
 11
-92.94313
 21
27.814033
  0
POINT
  8
寸法
 62
     0
 10
-92.94313
 20
47.814033
  0
POINT
  8
寸法
 62
     0
 10
-92.94313
 20
27.814033
  0
TEXT
  7
TextStyle03
  8
寸法
  6
CONTINUOUS
 62
     0
 10
-93.325
 20
35.3625
  1
600
 40
3.0
 50
90.0
 72
     5
 11
-93.325
 21
40.2375
  0
ENDBLK
  0
BLOCK
  2
*DIM_0016
 70
    65
 10
0.0
 20
0.0
  0
LINE
  8
寸法
  6
BYBLOCK
 62
     0
 10
-71.65029
 20
55.814033
 11
-71.65029
 21
84.922105
  0
LINE
  8
寸法
  6
BYBLOCK
 62
     0
 10
-44.983625
 20
55.814033
 11
-44.983625
 21
84.922105
  0
LINE
  8
寸法
  6
BYBLOCK
 62
     0
 10
-71.65029
 20
84.922105
 11
-44.983625
 21
84.922105
  0
POINT
  8
寸法
 62
     0
 10
-71.65029
 20
84.922105
  0
POINT
  8
寸法
 62
     0
 10
-44.983625
 20
84.922105
  0
TEXT
  7
TextStyle03
  8
寸法
  6
CONTINUOUS
 62
     0
 10
-60.7625
 20
85.275
  1
800
 40
3.0
 72
     5
 11
-55.8875
 21
85.275
  0
ENDBLK
  0
BLOCK
  2
*DIM_0017
 70
    65
 10
0.0
 20
0.0
  0
LINE
  8
寸法
  6
BYBLOCK
 62
     0
 10
-18.316957
 20
55.814033
 11
-18.316957
 21
84.922105
  0
LINE
  8
寸法
  6
BYBLOCK
 62
     0
 10
-44.983625
 20
84.922105
 11
-18.316957
 21
84.922105
  0
POINT
  8
寸法
 62
     0
 10
-18.316957
 20
84.922105
  0
TEXT
  7
TextStyle03
  8
寸法
  6
CONTINUOUS
 62
     0
 10
-34.1125
 20
85.275
  1
800
 40
3.0
 72
     5
 11
-29.2375
 21
85.275
  0
ENDBLK
  0
BLOCK
  2
*DIM_0018
 70
    65
 10
0.0
 20
0.0
  0
LINE
  8
寸法
  6
BYBLOCK
 62
     0
 10
8.34971
 20
55.814033
 11
8.34971
 21
84.922105
  0
LINE
  8
寸法
  6
BYBLOCK
 62
     0
 10
-18.316957
 20
84.922105
 11
8.34971
 21
84.922105
  0
POINT
  8
寸法
 62
     0
 10
8.34971
 20
84.922105
  0
TEXT
  7
TextStyle03
  8
寸法
  6
CONTINUOUS
 62
     0
 10
-7.4375
 20
85.275
  1
800
 40
3.0
 72
     5
 11
-2.5625
 21
85.275
  0
ENDBLK
  0
BLOCK
  2
*DIM_0019
 70
    65
 10
0.0
 20
0.0
  0
LINE
  8
寸法
  6
BYBLOCK
 62
     0
 10
35.016375
 20
55.814033
 11
35.016375
 21
84.922105
  0
LINE
  8
寸法
  6
BYBLOCK
 62
     0
 10
8.34971
 20
84.922105
 11
35.016375
 21
84.922105
  0
POINT
  8
寸法
 62
     0
 10
35.016375
 20
84.922105
  0
TEXT
  7
TextStyle03
  8
寸法
  6
CONTINUOUS
 62
     0
 10
19.2375
 20
85.275
  1
800
 40
3.0
 72
     5
 11
24.1125
 21
85.275
  0
ENDBLK
  0
BLOCK
  2
*DIM_0020
 70
    65
 10
0.0
 20
0.0
  0
LINE
  8
寸法
  6
CONTINUOUS
 10
104.395433
 20
-56.862947
 11
104.395433
 21
-43.199892
  0
LINE
  8
寸法
  6
CONTINUOUS
 10
142.328765
 20
-56.862947
 11
142.328765
 21
-43.199892
  0
LINE
  8
寸法
  6
CONTINUOUS
 10
104.395433
 20
-43.199892
 11
142.328765
 21
-43.199892
  0
POINT
  8
寸法
 10
104.395433
 20
-43.199892
  0
POINT
  8
寸法
 10
142.328765
 20
-43.199892
  0
TEXT
  7
TextStyle03
  8
寸法
  6
CONTINUOUS
 10
120.06875
 20
-42.825
  1
1138
 40
3.0
 72
     5
 11
126.63125
 21
-42.825
  0
ENDBLK
  0
BLOCK
  2
*GRP_0021
 70
    65
 10
0.0
 20
0.0
  0
LINE
  8
ボルト／ビス
  6
CONTINUOUS
 10
-77.316957
 20
-70.209613
 11
-77.316957
 21
-69.742945
  0
LINE
  8
ボルト／ビス
  6
CONTINUOUS
 10
-77.683625
 20
-70.209613
 11
-77.683625
 21
-70.142945
  0
LINE
  8
ボルト／ビス
  6
CONTINUOUS
 10
-77.683625
 20
-70.142945
 11
-76.95029
 21
-70.142945
  0
LINE
  8
ボルト／ビス
  6
CONTINUOUS
 10
-76.95029
 20
-70.142945
 11
-76.95029
 21
-70.209613
  0
LINE
  8
ボルト／ビス
  6
CONTINUOUS
 10
-77.683625
 20
-70.209613
 11
-76.95029
 21
-70.209613
  0
LINE
  8
ボルト／ビス
  6
CONTINUOUS
 10
-77.616957
 20
-70.109612
 11
-77.616957
 21
-70.142945
  0
LINE
  8
ボルト／ビス
  6
CONTINUOUS
 10
-77.616957
 20
-70.109612
 11
-77.016957
 21
-70.109612
  0
LINE
  8
ボルト／ビス
  6
CONTINUOUS
 10
-77.016957
 20
-70.109612
 11
-77.016957
 21
-70.142945
  0
LINE
  8
ボルト／ビス
  6
CONTINUOUS
 62
    64
 10
-77.477333
 20
-69.909613
 11
-77.509407
 21
-69.921288
  0
ARC
  8
ボルト／ビス
  6
CONTINUOUS
 62
    64
 10
-77.461294
 20
-70.01459
 40
0.104978
 50
62.721967
 51
90.0
  0
ARC
  8
ボルト／ビス
  6
CONTINUOUS
 62
    64
 10
-77.316956
 20
-70.312013
 40
0.402402
 50
76.165002
 51
103.834985
  0
LINE
  8
ボルト／ビス
  6
CONTINUOUS
 62
    64
 10
-77.156582
 20
-69.909613
 11
-77.124507
 21
-69.921288
  0
ARC
  8
ボルト／ビス
  6
CONTINUOUS
 62
    64
 10
-77.172619
 20
-70.01459
 40
0.104978
 50
90.0
 51
117.278033
  0
LINE
  8
ボルト／ビス
  6
CONTINUOUS
 62
    64
 10
-77.477333
 20
-69.909613
 11
-77.156582
 21
-69.909613
  0
LINE
  8
ボルト／ビス
  6
CONTINUOUS
 62
    64
 10
-77.124507
 20
-69.921288
 11
-77.124507
 21
-70.042945
  0
LINE
  8
ボルト／ビス
  6
CONTINUOUS
 62
    64
 10
-77.220733
 20
-69.921288
 11
-77.220733
 21
-70.042945
  0
LINE
  8
ボルト／ビス
  6
CONTINUOUS
 62
    64
 10
-77.509407
 20
-69.921288
 11
-77.509407
 21
-70.042945
  0
LINE
  8
ボルト／ビス
  6
CONTINUOUS
 62
    64
 10
-77.413183
 20
-69.921288
 11
-77.413183
 21
-70.042945
  0
LINE
  8
ボルト／ビス
  6
CONTINUOUS
 10
-77.509407
 20
-70.042945
 11
-77.124507
 21
-70.042945
  0
LINE
  8
ボルト／ビス
  6
CONTINUOUS
 10
-77.516957
 20
-70.042945
 11
-77.516957
 21
-70.109612
  0
LINE
  8
ボルト／ビス
  6
CONTINUOUS
 10
-77.516957
 20
-70.042945
 11
-77.116957
 21
-70.042945
  0
LINE
  8
ボルト／ビス
  6
CONTINUOUS
 10
-77.116957
 20
-70.042945
 11
-77.116957
 21
-70.109612
  0
ENDBLK
  0
BLOCK
  2
*GRP_0022
 70
    65
 10
0.0
 20
0.0
  0
LINE
  8
ボルト／ビス
  6
CONTINUOUS
 10
40.683043
 20
-70.209613
 11
40.683043
 21
-69.742945
  0
LINE
  8
ボルト／ビス
  6
CONTINUOUS
 10
40.316375
 20
-70.209613
 11
40.316375
 21
-70.142945
  0
LINE
  8
ボルト／ビス
  6
CONTINUOUS
 10
40.316375
 20
-70.142945
 11
41.04971
 21
-70.142945
  0
LINE
  8
ボルト／ビス
  6
CONTINUOUS
 10
41.04971
 20
-70.142945
 11
41.04971
 21
-70.209613
  0
LINE
  8
ボルト／ビス
  6
CONTINUOUS
 10
40.316375
 20
-70.209613
 11
41.04971
 21
-70.209613
  0
LINE
  8
ボルト／ビス
  6
CONTINUOUS
 10
40.383043
 20
-70.109612
 11
40.383043
 21
-70.142945
  0
LINE
  8
ボルト／ビス
  6
CONTINUOUS
 10
40.383043
 20
-70.109612
 11
40.983043
 21
-70.109612
  0
LINE
  8
ボルト／ビス
  6
CONTINUOUS
 10
40.983043
 20
-70.109612
 11
40.983043
 21
-70.142945
  0
LINE
  8
ボルト／ビス
  6
CONTINUOUS
 62
    64
 10
40.522667
 20
-69.909613
 11
40.490592
 21
-69.921288
  0
ARC
  8
ボルト／ビス
  6
CONTINUOUS
 62
    64
 10
40.538706
 20
-70.01459
 40
0.104978
 50
62.721967
 51
90.0
  0
ARC
  8
ボルト／ビス
  6
CONTINUOUS
 62
    64
 10
40.683044
 20
-70.312013
 40
0.402402
 50
76.165002
 51
103.834985
  0
LINE
  8
ボルト／ビス
  6
CONTINUOUS
 62
    64
 10
40.843418
 20
-69.909613
 11
40.875492
 21
-69.921288
  0
ARC
  8
ボルト／ビス
  6
CONTINUOUS
 62
    64
 10
40.827381
 20
-70.01459
 40
0.104978
 50
90.0
 51
117.278033
  0
LINE
  8
ボルト／ビス
  6
CONTINUOUS
 62
    64
 10
40.522667
 20
-69.909613
 11
40.843418
 21
-69.909613
  0
LINE
  8
ボルト／ビス
  6
CONTINUOUS
 62
    64
 10
40.875492
 20
-69.921288
 11
40.875492
 21
-70.042945
  0
LINE
  8
ボルト／ビス
  6
CONTINUOUS
 62
    64
 10
40.779268
 20
-69.921288
 11
40.779268
 21
-70.042945
  0
LINE
  8
ボルト／ビス
  6
CONTINUOUS
 62
    64
 10
40.490592
 20
-69.921288
 11
40.490592
 21
-70.042945
  0
LINE
  8
ボルト／ビス
  6
CONTINUOUS
 62
    64
 10
40.586817
 20
-69.921288
 11
40.586817
 21
-70.042945
  0
LINE
  8
ボルト／ビス
  6
CONTINUOUS
 10
40.490592
 20
-70.042945
 11
40.875492
 21
-70.042945
  0
LINE
  8
ボルト／ビス
  6
CONTINUOUS
 10
40.483043
 20
-70.042945
 11
40.483043
 21
-70.109612
  0
LINE
  8
ボルト／ビス
  6
CONTINUOUS
 10
40.483043
 20
-70.042945
 11
40.883043
 21
-70.042945
  0
LINE
  8
ボルト／ビス
  6
CONTINUOUS
 10
40.883043
 20
-70.042945
 11
40.883043
 21
-70.109612
  0
ENDBLK
  0
BLOCK
  2
*GRP_0023
 70
    65
 10
0.0
 20
0.0
  0
LINE
  8
ボルト／ビス
  6
CONTINUOUS
 10
129.54964
 20
22.147365
 11
129.082972
 21
22.147365
  0
LINE
  8
ボルト／ビス
  6
CONTINUOUS
 10
129.54964
 20
21.780697
 11
129.482972
 21
21.780697
  0
LINE
  8
ボルト／ビス
  6
CONTINUOUS
 10
129.482972
 20
21.780697
 11
129.482972
 21
22.514033
  0
LINE
  8
ボルト／ビス
  6
CONTINUOUS
 10
129.482972
 20
22.514033
 11
129.54964
 21
22.514033
  0
LINE
  8
ボルト／ビス
  6
CONTINUOUS
 10
129.54964
 20
21.780697
 11
129.54964
 21
22.514033
  0
LINE
  8
ボルト／ビス
  6
CONTINUOUS
 10
129.44964
 20
21.847365
 11
129.482972
 21
21.847365
  0
LINE
  8
ボルト／ビス
  6
CONTINUOUS
 10
129.44964
 20
21.847365
 11
129.44964
 21
22.447365
  0
LINE
  8
ボルト／ビス
  6
CONTINUOUS
 10
129.44964
 20
22.447365
 11
129.482972
 21
22.447365
  0
LINE
  8
ボルト／ビス
  6
CONTINUOUS
 62
    64
 10
129.24964
 20
21.98699
 11
129.261315
 21
21.954915
  0
ARC
  8
ボルト／ビス
  6
CONTINUOUS
 62
    64
 10
129.354619
 20
22.003029
 40
0.104978
 50
152.721967
 51
180.0
  0
ARC
  8
ボルト／ビス
  6
CONTINUOUS
 62
    64
 10
129.652043
 20
22.147367
 40
0.402402
 50
166.165002
 51
193.834985
  0
LINE
  8
ボルト／ビス
  6
CONTINUOUS
 62
    64
 10
129.24964
 20
22.30774
 11
129.261315
 21
22.339815
  0
ARC
  8
ボルト／ビス
  6
CONTINUOUS
 62
    64
 10
129.354619
 20
22.291704
 40
0.104978
 50
180.0
 51
207.278033
  0
LINE
  8
ボルト／ビス
  6
CONTINUOUS
 62
    64
 10
129.24964
 20
21.98699
 11
129.24964
 21
22.30774
  0
LINE
  8
ボルト／ビス
  6
CONTINUOUS
 62
    64
 10
129.261315
 20
22.339815
 11
129.382972
 21
22.339815
  0
LINE
  8
ボルト／ビス
  6
CONTINUOUS
 62
    64
 10
129.261315
 20
22.24359
 11
129.382972
 21
22.24359
  0
LINE
  8
ボルト／ビス
  6
CONTINUOUS
 62
    64
 10
129.261315
 20
21.954915
 11
129.382972
 21
21.954915
  0
LINE
  8
ボルト／ビス
  6
CONTINUOUS
 62
    64
 10
129.261315
 20
22.05114
 11
129.382972
 21
22.05114
  0
LINE
  8
ボルト／ビス
  6
CONTINUOUS
 10
129.382972
 20
21.954915
 11
129.382972
 21
22.339815
  0
LINE
  8
ボルト／ビス
  6
CONTINUOUS
 10
129.382972
 20
21.947365
 11
129.44964
 21
21.947365
  0
LINE
  8
ボルト／ビス
  6
CONTINUOUS
 10
129.382972
 20
21.947365
 11
129.382972
 21
22.347365
  0
LINE
  8
ボルト／ビス
  6
CONTINUOUS
 10
129.382972
 20
22.347365
 11
129.44964
 21
22.347365
  0
ENDBLK
  0
BLOCK
  2
*GRP_0024
 70
    65
 10
0.0
 20
0.0
  0
LINE
  8
ボルト／ビス
  6
CONTINUOUS
 10
129.54964
 20
53.4807
 11
129.082972
 21
53.4807
  0
LINE
  8
ボルト／ビス
  6
CONTINUOUS
 10
129.54964
 20
53.114033
 11
129.482972
 21
53.114033
  0
LINE
  8
ボルト／ビス
  6
CONTINUOUS
 10
129.482972
 20
53.114033
 11
129.482972
 21
53.847367
  0
LINE
  8
ボルト／ビス
  6
CONTINUOUS
 10
129.482972
 20
53.847367
 11
129.54964
 21
53.847367
  0
LINE
  8
ボルト／ビス
  6
CONTINUOUS
 10
129.54964
 20
53.114033
 11
129.54964
 21
53.847367
  0
LINE
  8
ボルト／ビス
  6
CONTINUOUS
 10
129.44964
 20
53.1807
 11
129.482972
 21
53.1807
  0
LINE
  8
ボルト／ビス
  6
CONTINUOUS
 10
129.44964
 20
53.1807
 11
129.44964
 21
53.7807
  0
LINE
  8
ボルト／ビス
  6
CONTINUOUS
 10
129.44964
 20
53.7807
 11
129.482972
 21
53.7807
  0
LINE
  8
ボルト／ビス
  6
CONTINUOUS
 62
    64
 10
129.24964
 20
53.320325
 11
129.261315
 21
53.28825
  0
ARC
  8
ボルト／ビス
  6
CONTINUOUS
 62
    64
 10
129.354619
 20
53.336364
 40
0.104978
 50
152.721967
 51
180.0
  0
ARC
  8
ボルト／ビス
  6
CONTINUOUS
 62
    64
 10
129.652043
 20
53.480702
 40
0.402402
 50
166.165002
 51
193.834985
  0
LINE
  8
ボルト／ビス
  6
CONTINUOUS
 62
    64
 10
129.24964
 20
53.641075
 11
129.261315
 21
53.67315
  0
ARC
  8
ボルト／ビス
  6
CONTINUOUS
 62
    64
 10
129.354619
 20
53.625039
 40
0.104978
 50
180.0
 51
207.278033
  0
LINE
  8
ボルト／ビス
  6
CONTINUOUS
 62
    64
 10
129.24964
 20
53.320325
 11
129.24964
 21
53.641075
  0
LINE
  8
ボルト／ビス
  6
CONTINUOUS
 62
    64
 10
129.261315
 20
53.67315
 11
129.382972
 21
53.67315
  0
LINE
  8
ボルト／ビス
  6
CONTINUOUS
 62
    64
 10
129.261315
 20
53.576925
 11
129.382972
 21
53.576925
  0
LINE
  8
ボルト／ビス
  6
CONTINUOUS
 62
    64
 10
129.261315
 20
53.28825
 11
129.382972
 21
53.28825
  0
LINE
  8
ボルト／ビス
  6
CONTINUOUS
 62
    64
 10
129.261315
 20
53.384475
 11
129.382972
 21
53.384475
  0
LINE
  8
ボルト／ビス
  6
CONTINUOUS
 10
129.382972
 20
53.28825
 11
129.382972
 21
53.67315
  0
LINE
  8
ボルト／ビス
  6
CONTINUOUS
 10
129.382972
 20
53.2807
 11
129.44964
 21
53.2807
  0
LINE
  8
ボルト／ビス
  6
CONTINUOUS
 10
129.382972
 20
53.2807
 11
129.382972
 21
53.6807
  0
LINE
  8
ボルト／ビス
  6
CONTINUOUS
 10
129.382972
 20
53.6807
 11
129.44964
 21
53.6807
  0
ENDBLK
  0
ENDSEC
  0
SECTION
  2
ENTITIES
  0
POLYLINE
  8
通り芯
  6
CONTINUOUS
 66
     1
 70
     1
  0
VERTEX
  8
通り芯
 10
-210.0
 20
-148.5
  0
VERTEX
  8
通り芯
 10
210.0
 20
-148.5
  0
VERTEX
  8
通り芯
 10
210.0
 20
148.5
  0
VERTEX
  8
通り芯
 10
-210.0
 20
148.5
  0
SEQEND
  0
INSERT
  2
*GRP_0001
  8
型材断面
  6
CONTINUOUS
 10
0.0
 20
0.0
  0
LINE
  8
型材断面
  6
DASHDOT
 10
40.016375
 20
-77.836442
 11
40.016375
 21
52.814033
  0
LINE
  8
型材断面
  6
DASHDOT
 10
-18.316957
 20
-77.836442
 11
-18.316957
 21
52.814033
  0
LINE
  8
型材断面
  6
DASHDOT
 10
-76.650292
 20
-77.836442
 11
-76.650292
 21
52.814033
  0
LINE
  8
型材断面
  6
DASHDOT
 10
137.693138
 20
22.814033
 11
-76.650292
 21
22.814033
  0
LINE
  8
型材断面
  6
DASHDOT
 10
137.693138
 20
37.814033
 11
-76.650292
 21
37.814033
  0
LINE
  8
型材断面
  6
DASHDOT
 10
137.693138
 20
52.814033
 11
-76.650292
 21
52.814033
  0
LINE
  8
型材断面
  6
CONTINUOUS
 10
-59.983625
 20
55.444162
 11
-61.479255
 21
58.03467
  0
LINE
  8
型材断面
  6
CONTINUOUS
 10
-59.983625
 20
55.444162
 11
-58.487995
 21
58.03467
  0
LINE
  8
型材断面
  6
CONTINUOUS
 10
-58.487995
 20
58.03467
 11
-61.479255
 21
58.03467
  0
LINE
  8
型材断面
  6
CONTINUOUS
 10
-79.280422
 20
37.814033
 11
-81.87093
 21
39.309663
  0
LINE
  8
型材断面
  6
CONTINUOUS
 10
-79.280422
 20
37.814033
 11
-81.87093
 21
36.318403
  0
LINE
  8
型材断面
  6
CONTINUOUS
 10
-81.87093
 20
36.318403
 11
-81.87093
 21
39.309663
  0
LINE
  8
型材断面
  6
CONTINUOUS
 10
-59.983625
 20
20.183902
 11
-61.479255
 21
17.593395
  0
LINE
  8
型材断面
  6
CONTINUOUS
 10
-59.983625
 20
20.183902
 11
-58.487995
 21
17.593395
  0
LINE
  8
型材断面
  6
CONTINUOUS
 10
-58.487995
 20
17.593395
 11
-61.479255
 21
17.593395
  0
LINE
  8
型材断面
  6
CONTINUOUS
 10
-130.528815
 20
97.32138
 11
-132.024445
 21
94.730873
  0
LINE
  8
型材断面
  6
CONTINUOUS
 10
-130.528815
 20
97.32138
 11
-129.033185
 21
94.730873
  0
LINE
  8
型材断面
  6
CONTINUOUS
 10
-129.033185
 20
94.730873
 11
-132.024445
 21
94.730873
  0
LINE
  8
型材断面
  6
CONTINUOUS
 10
-136.551403
 20
93.792277
 11
-90.309625
 21
93.792277
  0
LINE
  8
型材断面
  6
CONTINUOUS
 10
23.34971
 20
55.444162
 11
24.84534
 21
58.03467
  0
LINE
  8
型材断面
  6
CONTINUOUS
 10
23.34971
 20
55.444162
 11
21.85408
 21
58.03467
  0
LINE
  8
型材断面
  6
CONTINUOUS
 10
21.85408
 20
58.03467
 11
24.84534
 21
58.03467
  0
LINE
  8
型材断面
  6
CONTINUOUS
 10
42.646508
 20
37.814033
 11
45.237015
 21
39.309663
  0
LINE
  8
型材断面
  6
CONTINUOUS
 10
42.646508
 20
37.814033
 11
45.237015
 21
36.318403
  0
LINE
  8
型材断面
  6
CONTINUOUS
 10
45.237015
 20
36.318403
 11
45.237015
 21
39.309663
  0
LINE
  8
型材断面
  6
CONTINUOUS
 10
23.34971
 20
20.183902
 11
24.84534
 21
17.593395
  0
LINE
  8
型材断面
  6
CONTINUOUS
 10
23.34971
 20
20.183902
 11
21.85408
 21
17.593395
  0
LINE
  8
型材断面
  6
CONTINUOUS
 10
21.85408
 20
17.593395
 11
24.84534
 21
17.593395
  0
LINE
  8
型材断面
  6
CONTINUOUS
 10
-136.551403
 20
87.879073
 11
-90.309625
 21
87.879073
  0
LINE
  8
型材断面
  6
CONTINUOUS
 10
132.082925
 20
20.65722
 11
131.632925
 21
20.65722
  0
LINE
  8
型材断面
  6
CONTINUOUS
 62
    47
 10
131.632925
 20
20.20722
 11
131.132925
 21
20.20722
  0
LINE
  8
型材断面
  6
CONTINUOUS
 62
    47
 10
131.132925
 20
20.20722
 11
130.54964
 21
22.081677
  0
LINE
  8
型材断面
  6
CONTINUOUS
 10
131.132925
 20
20.20722
 11
131.132925
 21
37.814033
  0
LINE
  8
型材断面
  6
CONTINUOUS
 10
132.082925
 20
20.65722
 11
132.082925
 21
37.814033
  0
LINE
  8
型材断面
  6
CONTINUOUS
 10
132.082925
 20
54.970845
 11
131.632925
 21
54.970845
  0
LINE
  8
型材断面
  6
CONTINUOUS
 62
    47
 10
131.632925
 20
55.420845
 11
131.132925
 21
55.420845
  0
LINE
  8
型材断面
  6
CONTINUOUS
 62
    47
 10
131.132925
 20
55.420845
 11
130.54964
 21
53.546387
  0
LINE
  8
型材断面
  6
CONTINUOUS
 10
131.132925
 20
55.420845
 11
131.132925
 21
37.814033
  0
LINE
  8
型材断面
  6
CONTINUOUS
 10
132.082925
 20
54.970845
 11
132.082925
 21
37.814033
  0
LINE
  8
型材断面
  6
CONTINUOUS
 10
42.083043
 20
20.747365
 11
42.623187
 21
20.20722
  0
LINE
  8
型材断面
  6
CONTINUOUS
 10
42.623187
 20
20.20722
 11
42.623187
 21
37.814033
  0
LINE
  8
型材断面
  6
CONTINUOUS
 10
42.173187
 20
-72.742897
 11
42.173187
 21
-72.292897
  0
LINE
  8
型材断面
  6
CONTINUOUS
 62
    47
 10
42.623187
 20
-72.292897
 11
42.623187
 21
-71.792897
  0
LINE
  8
型材断面
  6
CONTINUOUS
 62
    47
 10
42.623187
 20
-71.792897
 11
40.74873
 21
-71.209613
  0
LINE
  8
型材断面
  6
CONTINUOUS
 10
42.623187
 20
20.20722
 11
-18.316957
 21
20.207237
  0
LINE
  8
型材断面
  6
CONTINUOUS
 10
42.083043
 20
54.8807
 11
42.623187
 21
55.420845
  0
LINE
  8
型材断面
  6
CONTINUOUS
 10
42.623187
 20
55.420845
 11
42.623187
 21
37.814033
  0
LINE
  8
型材断面
  6
CONTINUOUS
 10
42.623187
 20
55.420845
 11
-18.316957
 21
55.420828
  0
LINE
  8
型材断面
  6
CONTINUOUS
 10
-78.716957
 20
54.8807
 11
-79.257103
 21
55.420845
  0
LINE
  8
型材断面
  6
CONTINUOUS
 10
-79.257103
 20
55.420845
 11
-79.257103
 21
37.814033
  0
LINE
  8
型材断面
  6
CONTINUOUS
 10
-79.257103
 20
55.420845
 11
-18.316957
 21
55.420828
  0
LINE
  8
型材断面
  6
CONTINUOUS
 10
-78.716957
 20
20.747365
 11
-79.257103
 21
20.20722
  0
LINE
  8
型材断面
  6
CONTINUOUS
 10
-79.257103
 20
20.20722
 11
-79.257103
 21
37.814033
  0
LINE
  8
型材断面
  6
CONTINUOUS
 10
-79.257103
 20
20.20722
 11
-18.316957
 21
20.207237
  0
LINE
  8
型材断面
  6
CONTINUOUS
 10
42.623187
 20
-71.792897
 11
-18.316957
 21
-71.792897
  0
LINE
  8
型材断面
  6
CONTINUOUS
 10
42.173187
 20
-72.742897
 11
-18.316957
 21
-72.742897
  0
LINE
  8
型材断面
  6
CONTINUOUS
 10
-78.807103
 20
-72.742897
 11
-78.807103
 21
-72.292897
  0
LINE
  8
型材断面
  6
CONTINUOUS
 62
    47
 10
-79.257103
 20
-72.292897
 11
-79.257103
 21
-71.792897
  0
LINE
  8
型材断面
  6
CONTINUOUS
 62
    47
 10
-79.257103
 20
-71.792897
 11
-77.382645
 21
-71.209613
  0
LINE
  8
型材断面
  6
CONTINUOUS
 10
-79.257103
 20
-71.792897
 11
-18.316957
 21
-71.792897
  0
LINE
  8
型材断面
  6
CONTINUOUS
 10
-78.807103
 20
-72.742897
 11
-18.316957
 21
-72.742897
  0
LINE
  8
型材断面
  6
DOT
 10
-36.583627
 20
22.814033
 11
-36.583627
 21
52.814033
  0
LINE
  8
型材断面
  6
DOT
 10
-39.083627
 20
22.814033
 11
-39.083627
 21
52.814033
  0
LINE
  8
型材断面
  6
DASHDOT
 10
-37.833627
 20
22.814033
 11
-37.833627
 21
52.814033
  0
LINE
  8
型材断面
  6
DOT
 10
-0.050288
 20
22.814033
 11
-0.050288
 21
52.814033
  0
LINE
  8
型材断面
  6
DOT
 10
2.449712
 20
22.814033
 11
2.449712
 21
52.814033
  0
LINE
  8
型材断面
  6
DASHDOT
 10
1.199712
 20
22.814033
 11
1.199712
 21
52.814033
  0
LINE
  8
ガラス
  6
CONTINUOUS
 10
142.328765
 20
-87.823622
 11
142.328765
 21
-58.49029
  0
LINE
  8
ガラス
  6
CONTINUOUS
 10
104.395433
 20
-87.823622
 11
104.395433
 21
-58.49029
  0
LINE
  8
ガラス
  6
CONTINUOUS
 10
142.328765
 20
-58.49029
 11
104.395433
 21
-58.49029
  0
LINE
  8
ガラス
  6
CONTINUOUS
 10
142.328765
 20
-87.823622
 11
104.395433
 21
-87.823622
  0
TEXT
  7
TextStyle03
  8
文字
  6
CONTINUOUS
 10
-127.75
 20
94.925
  1
は排水穴位置を示す
 40
3.0
 72
     5
 11
-97.75
 21
94.925
  0
TEXT
  7
TextStyle03
  8
文字
  6
CONTINUOUS
 10
124.05
 20
-81.275
  1
網入り6.8t
 40
3.0
 72
     5
 11
140.7375
 21
-81.275
  0
TEXT
  7
TextStyle03
  8
文字
  6
CONTINUOUS
 10
130.725
 20
-85.95
  1
×３枚
 40
3.0
 72
     5
 11
140.475
 21
-85.95
  0
TEXT
  7
TextStyle03
  8
文字
  6
CONTINUOUS
 10
-97.65
 20
16.275
  1
アンカーピッチ
 40
3.0
 50
90.0
 72
     5
 11
-97.65
 21
39.525
  0
TEXT
  7
TextStyle03
  8
文字
  6
CONTINUOUS
 10
-65.5
 20
89.75
  1
アンカーピッチ
 40
3.0
 72
     5
 11
-42.25
 21
89.75
  0
TEXT
  7
TextStyle03
  8
文字
  6
CONTINUOUS
 10
-131.475
 20
88.775
  1
アンカー数量　１４ヶ所
 40
3.0
 72
     5
 11
-94.725
 21
88.775
  0
TEXT
  7
TextStyle03
  8
文字
  6
CONTINUOUS
 10
78.1
 20
125.25
  1
シリーズ：ＳＴＤＫＬ
 40
5.0
 72
     5
 11
133.725
 21
125.25
  0
TEXT
  7
TextStyle03
  8
文字
  6
CONTINUOUS
 10
78.1
 20
119.625
  1
　　　　　（固定）900×3500タイプ
 40
5.0
 72
     5
 11
170.2875
 21
119.625
  0
TEXT
  7
TextStyle03
  8
文字
  6
CONTINUOUS
 10
78.1
 20
114.0
  1
図面名　：外観姿図
 40
5.0
 72
     5
 11
128.1
 21
114.0
  0
TEXT
  7
TextStyle03
  8
文字
  6
CONTINUOUS
 10
78.1
 20
108.375
  1
　　　　　　
 40
5.0
 72
     5
 11
111.225
 21
108.375
  0
TEXT
  7
TextStyle03
  8
文字
  6
CONTINUOUS
 10
78.375
 20
104.175
  1
ＮＳコード：ＮＳＫＳＬ
 40
5.0
 72
     5
 11
139.625
 21
104.175
  0
INSERT
  2
*DIM_0002
  8
寸法
  6
CONTINUOUS
 10
0.0
 20
0.0
  0
INSERT
  2
*DIM_0003
  8
寸法
  6
CONTINUOUS
 10
0.0
 20
0.0
  0
INSERT
  2
*DIM_0004
  8
寸法
  6
CONTINUOUS
 10
0.0
 20
0.0
  0
INSERT
  2
*DIM_0005
  8
寸法
  6
CONTINUOUS
 10
0.0
 20
0.0
  0
INSERT
  2
*DIM_0006
  8
寸法
  6
CONTINUOUS
 10
0.0
 20
0.0
  0
INSERT
  2
*DIM_0007
  8
寸法
  6
CONTINUOUS
 10
0.0
 20
0.0
  0
INSERT
  2
*DIM_0008
  8
寸法
  6
CONTINUOUS
 10
0.0
 20
0.0
  0
INSERT
  2
*DIM_0009
  8
寸法
  6
CONTINUOUS
 10
0.0
 20
0.0
  0
INSERT
  2
*DIM_0010
  8
寸法
  6
CONTINUOUS
 10
0.0
 20
0.0
  0
INSERT
  2
*DIM_0011
  8
寸法
  6
CONTINUOUS
 10
0.0
 20
0.0
  0
INSERT
  2
*DIM_0012
  8
寸法
  6
CONTINUOUS
 10
0.0
 20
0.0
  0
INSERT
  2
*DIM_0014
  8
寸法
  6
CONTINUOUS
 10
0.0
 20
0.0
  0
INSERT
  2
*DIM_0015
  8
寸法
  6
CONTINUOUS
 10
0.0
 20
0.0
  0
INSERT
  2
*DIM_0016
  8
寸法
  6
CONTINUOUS
 10
0.0
 20
0.0
  0
INSERT
  2
*DIM_0017
  8
寸法
  6
CONTINUOUS
 10
0.0
 20
0.0
  0
INSERT
  2
*DIM_0018
  8
寸法
  6
CONTINUOUS
 10
0.0
 20
0.0
  0
INSERT
  2
*DIM_0019
  8
寸法
  6
CONTINUOUS
 10
0.0
 20
0.0
  0
INSERT
  2
*DIM_0020
  8
寸法
  6
CONTINUOUS
 10
0.0
 20
0.0
  0
LINE
  8
別途部材
  6
CONTINUOUS
 10
42.083043
 20
20.747365
 11
41.683043
 21
21.147365
  0
LINE
  8
別途部材
  6
CONTINUOUS
 10
40.016375
 20
22.814033
 11
31.95712
 21
30.87329
  0
LINE
  8
別途部材
  6
CONTINUOUS
 10
41.683043
 20
21.147365
 11
41.683043
 21
37.814033
  0
LINE
  8
別途部材
  6
CONTINUOUS
 10
42.083043
 20
20.747365
 11
42.083043
 21
37.814033
  0
LINE
  8
別途部材
  6
CONTINUOUS
 10
42.083043
 20
54.8807
 11
41.683043
 21
54.4807
  0
LINE
  8
別途部材
  6
CONTINUOUS
 10
40.016375
 20
52.814033
 11
31.95712
 21
44.754775
  0
LINE
  8
別途部材
  6
CONTINUOUS
 10
41.683043
 20
54.4807
 11
41.683043
 21
37.814033
  0
LINE
  8
別途部材
  6
CONTINUOUS
 10
42.083043
 20
54.8807
 11
42.083043
 21
37.814033
  0
LINE
  8
別途部材
  6
CONTINUOUS
 10
41.683043
 20
54.4807
 11
-18.316957
 21
54.4807
  0
LINE
  8
別途部材
  6
CONTINUOUS
 10
42.083043
 20
54.8807
 11
-18.316957
 21
54.8807
  0
LINE
  8
別途部材
  6
CONTINUOUS
 10
41.683043
 20
21.147365
 11
-18.316957
 21
21.147365
  0
LINE
  8
別途部材
  6
CONTINUOUS
 10
42.083043
 20
20.747365
 11
-18.316957
 21
20.747365
  0
LINE
  8
別途部材
  6
CONTINUOUS
 10
-78.716957
 20
20.747365
 11
-78.316957
 21
21.147365
  0
LINE
  8
別途部材
  6
CONTINUOUS
 10
-76.65029
 20
22.814033
 11
-68.591035
 21
30.87329
  0
LINE
  8
別途部材
  6
CONTINUOUS
 10
-78.316957
 20
21.147365
 11
-78.316957
 21
37.814033
  0
LINE
  8
別途部材
  6
CONTINUOUS
 10
-78.716957
 20
20.747365
 11
-78.716957
 21
37.814033
  0
LINE
  8
別途部材
  6
CONTINUOUS
 10
-78.716957
 20
54.8807
 11
-78.316957
 21
54.4807
  0
LINE
  8
別途部材
  6
CONTINUOUS
 10
-76.65029
 20
52.814033
 11
-68.591035
 21
44.754775
  0
LINE
  8
別途部材
  6
CONTINUOUS
 10
-78.316957
 20
54.4807
 11
-78.316957
 21
37.814033
  0
LINE
  8
別途部材
  6
CONTINUOUS
 10
-78.716957
 20
54.8807
 11
-78.716957
 21
37.814033
  0
LINE
  8
別途部材
  6
CONTINUOUS
 10
-78.316957
 20
54.4807
 11
-18.316957
 21
54.4807
  0
LINE
  8
別途部材
  6
CONTINUOUS
 10
-78.716957
 20
54.8807
 11
-18.316957
 21
54.8807
  0
LINE
  8
別途部材
  6
CONTINUOUS
 10
-78.316957
 20
21.147365
 11
-18.316957
 21
21.147365
  0
LINE
  8
別途部材
  6
CONTINUOUS
 10
-78.716957
 20
20.747365
 11
-18.316957
 21
20.747365
  0
LINE
  8
別途部材
  6
CONTINUOUS
 62
    96
 10
129.54964
 20
21.147365
 11
130.54964
 21
20.747365
  0
LINE
  8
別途部材
  6
CONTINUOUS
 62
    96
 10
129.54964
 20
21.147365
 11
129.54964
 21
37.814033
  0
LINE
  8
別途部材
  6
CONTINUOUS
 10
130.54964
 20
20.747365
 11
130.54964
 21
37.814033
  0
LINE
  8
別途部材
  6
CONTINUOUS
 62
    96
 10
129.54964
 20
54.4807
 11
130.54964
 21
54.8807
  0
LINE
  8
別途部材
  6
CONTINUOUS
 62
    96
 10
129.54964
 20
54.4807
 11
129.54964
 21
37.814033
  0
LINE
  8
別途部材
  6
CONTINUOUS
 10
130.54964
 20
54.8807
 11
130.54964
 21
37.814033
  0
ARC
  8
別途部材
  6
CONTINUOUS
 10
138.882973
 20
37.814033
 40
17.666667
 50
121.890796
 51
238.109204
  0
INSERT
  2
*GRP_0013
  8
別途部材
  6
CONTINUOUS
 10
0.0
 20
0.0
  0
INSERT
  2
*GRP_0021
  8
別途部材
  6
DOT
 10
0.0
 20
0.0
  0
INSERT
  2
*GRP_0022
  8
別途部材
  6
DOT
 10
0.0
 20
0.0
  0
INSERT
  2
*GRP_0023
  8
別途部材
  6
DOT
 10
0.0
 20
0.0
  0
INSERT
  2
*GRP_0024
  8
別途部材
  6
DOT
 10
0.0
 20
0.0
  0
LINE
  8
St
  6
CONTINUOUS
 62
    47
 10
131.632925
 20
20.20722
 11
131.632925
 21
37.814033
  0
LINE
  8
St
  6
CONTINUOUS
 62
    47
 10
131.632925
 20
55.420845
 11
131.632925
 21
37.814033
  0
LINE
  8
St
  6
CONTINUOUS
 62
    47
 10
42.623187
 20
-72.292897
 11
-18.316957
 21
-72.292897
  0
LINE
  8
St
  6
CONTINUOUS
 62
    47
 10
-79.257103
 20
-72.292897
 11
-18.316957
 21
-72.292897
  0
ENDSEC
  0
EOF
