  0
SECTION
  2
HEADER
  9
$EXTMIN
 10
-210.0
 20
-148.5
  9
$EXTMAX
 10
210.0
 20
148.5
  9
$PDMODE
 70
    32
  9
$PDSIZE
 40
1.5
  9
$LTSCALE
 40
10.0
  0
ENDSEC
  0
SECTION
  2
TABLES
  0
TABLE
  2
LTYPE
 70
    15
  0
LTYPE
  2
CONTINUOUS
 70
    64
  3
実線
 72
    65
 73
     0
 40
0.0
  0
LTYPE
  2
DASHED
 70
    64
  3
破線A
 72
    65
 73
     2
 40
0.6
 49
0.4
 49
-0.2
  0
LTYPE
  2
DASHEDX2
 70
    64
  3
破線B
 72
    65
 73
     2
 40
1.3
 49
0.9
 49
-0.4
  0
LTYPE
  2
DASHDOT
 70
    64
  3
１点鎖線A
 72
    65
 73
     4
 40
0.5375
 49
0.375
 49
-0.05
 49
0.0625
 49
-0.05
  0
LTYPE
  2
DASHDOTX2
 70
    64
  3
１点鎖線B
 72
    65
 73
     4
 40
1.075
 49
0.75
 49
-0.1
 49
0.125
 49
-0.1
  0
LTYPE
  2
DIVIDE2
 70
    64
  3
２点鎖線A
 72
    65
 73
     6
 40
0.5125
 49
0.3
 49
-0.0375
 49
0.05
 49
-0.0375
 49
0.05
 49
-0.0375
  0
LTYPE
  2
DIVIDE
 70
    64
  3
２点鎖線B
 72
    65
 73
     6
 40
1.05
 49
0.55
 49
-0.1
 49
0.1
 49
-0.1
 49
0.1
 49
-0.1
  0
LTYPE
  2
DOT
 70
    64
  3
点線A
 72
    65
 73
     2
 40
0.1125
 49
0.0625
 49
-0.05
  0
LTYPE
  2
DOTX2
 70
    64
  3
点線B
 72
    65
 73
     2
 40
0.275
 49
0.15
 49
-0.125
  0
LTYPE
  2
CONTINUOUS
 70
    64
  3
実線
 72
    65
 73
     0
 40
0.0
  0
LTYPE
  2
CONTINUOUS
 70
    64
  3
実線
 72
    65
 73
     0
 40
0.0
  0
LTYPE
  2
CONTINUOUS
 70
    64
  3
実線
 72
    65
 73
     0
 40
0.0
  0
LTYPE
  2
CONTINUOUS
 70
    64
  3
実線
 72
    65
 73
     0
 40
0.0
  0
LTYPE
  2
CONTINUOUS
 70
    64
  3
実線
 72
    65
 73
     0
 40
0.0
  0
LTYPE
  2
CONTINUOUS
 70
    64
  3
実線
 72
    65
 73
     0
 40
0.0
  0
ENDTAB
  0
TABLE
  2
LAYER
 70
    34
  0
LAYER
  2
通り芯
 70
     0
 62
    15
  6
CONTINUOUS
  0
LAYER
  2
補助線
 70
     0
 62
    16
  6
DOT
  0
LAYER
  2
躯体
 70
     0
 62
    31
  6
CONTINUOUS
  0
LAYER
  2
型材
 70
     0
 62
    32
  6
CONTINUOUS
  0
LAYER
  2
型材断面
 70
     0
 62
    47
  6
CONTINUOUS
  0
LAYER
  2
ガラス
 70
     0
 62
    48
  6
CONTINUOUS
  0
LAYER
  2
ゴム等
 70
     0
 62
    63
  6
CONTINUOUS
  0
LAYER
  2
ボルト／ビス
 70
     0
 62
    64
  6
CONTINUOUS
  0
LAYER
  2
文字
 70
     0
 62
    79
  6
CONTINUOUS
  0
LAYER
  2
寸法
 70
     0
 62
    80
  6
CONTINUOUS
  0
LAYER
  2
ﾊｯﾁﾝｸﾞ
 70
     0
 62
    95
  6
CONTINUOUS
  0
LAYER
  2
別途部材
 70
     0
 62
    96
  6
CONTINUOUS
  0
LAYER
  2
曲げ物
 70
     0
 62
   111
  6
CONTINUOUS
  0
LAYER
  2
鉄骨等
 70
     0
 62
   112
  6
CONTINUOUS
  0
LAYER
  2
St
 70
     0
 62
   127
  6
CONTINUOUS
  0
LAYER
  2
その他部品等
 70
     0
 62
   128
  6
CONTINUOUS
  0
LAYER
  2
ｶﾞｽｹｯﾄ
 70
     0
 62
   143
  6
CONTINUOUS
  0
LAYER
  2
ｽｹｯﾁ
 70
     0
 62
    14
  6
CONTINUOUS
  0
LAYER
  2
0
 70
     0
 62
    17
  6
CONTINUOUS
  0
LAYER
  2
1
 70
     0
 62
    30
  6
CONTINUOUS
  0
LAYER
  2
4
 70
     0
 62
    33
  6
CONTINUOUS
  0
LAYER
  2
ﾚｲﾔ3
 70
     0
 62
    46
  6
CONTINUOUS
  0
LAYER
  2
外形線
 70
     0
 62
    49
  6
CONTINUOUS
  0
LAYER
  2
部品
 70
     0
 62
    14
  6
CONTINUOUS
  0
LAYER
  2
サッシ芯
 70
     0
 62
    17
  6
DASHDOTX2
  0
LAYER
  2
寸法線
 70
     0
 62
    62
  6
CONTINUOUS
  0
LAYER
  2
姿図外形線
 70
     0
 62
    65
  6
CONTINUOUS
  0
LAYER
  2
姿補助線
 70
     0
 62
    30
  6
CONTINUOUS
  0
LAYER
  2
透視線
 70
     0
 62
    78
  6
DOT
  0
LAYER
  2
用紙
 70
     0
 62
    81
  6
CONTINUOUS
  0
LAYER
  2
実線図枠
 70
     0
 62
    94
  6
CONTINUOUS
  0
LAYER
  2
補助図枠
 70
     0
 62
    97
  6
CONTINUOUS
  0
LAYER
  2
建具記号
 70
     0
 62
   110
  6
CONTINUOUS
  0
LAYER
  2
補助文字
 70
     0
 62
   113
  6
CONTINUOUS
  0
ENDTAB
  0
TABLE
  2
STYLE
 70
    10
  0
STYLE
  2
STANDARD
 70
     0
 40
1.0
 41
1.0
 42
1.0
 50
0.0
 71
     0
  3
TXT
  4
BIGFONT
  0
STYLE
  2
TATE
 70
     4
 40
1.0
 41
1.0
 42
1.0
 50
0.0
 71
     0
  3
TXT
  4
BIGFONT
  0
STYLE
  2
TextStyle03
 70
     0
 40
1.0
 41
1.0
 42
1.0
 50
0.0
 71
     0
  3
MONOTXT
  4
BIGFONT
  0
STYLE
  2
TextStyle04
 70
     0
 40
1.0
 41
1.0
 42
1.0
 50
0.0
 71
     0
  3
MONOTXT
  4
BIGFONT
  0
STYLE
  2
TextStyle05
 70
     0
 40
1.0
 41
1.0
 42
1.0
 50
0.0
 71
     0
  3
MONOTXT
  4
BIGFONT
  0
STYLE
  2
TextStyle06
 70
     0
 40
1.0
 41
1.0
 42
1.0
 50
0.0
 71
     0
  3
MONOTXT
  4
BIGFONT
  0
STYLE
  2
TextStyle07
 70
     0
 40
1.0
 41
1.0
 42
1.0
 50
0.0
 71
     0
  3
MONOTXT
  4
BIGFONT
  0
STYLE
  2
TextStyle08
 70
     0
 40
1.0
 41
1.0
 42
1.0
 50
0.0
 71
     0
  3
MONOTXT
  4
BIGFONT
  0
STYLE
  2
TextStyle09
 70
     0
 40
1.0
 41
1.0
 42
1.0
 50
0.0
 71
     0
  3
MONOTXT
  4
BIGFONT
  0
STYLE
  2
TextStyle10
 70
     0
 40
1.0
 41
1.0
 42
1.0
 50
0.0
 71
     0
  3
MONOTXT
  4
BIGFONT
  0
ENDTAB
  0
ENDSEC
  0
SECTION
  2
BLOCKS
  0
BLOCK
  2
*GRP_0001
 70
    65
 10
0.0
 20
0.0
  0
LINE
  8
型材断面
  6
CONTINUOUS
 10
195.0
 20
133.5
 11
195.0
 21
-133.5
  0
LINE
  8
型材断面
  6
CONTINUOUS
 10
195.0
 20
-133.5
 11
-185.0
 21
-133.5
  0
LINE
  8
型材断面
  6
CONTINUOUS
 10
-185.0
 20
-133.5
 11
-185.0
 21
133.5
  0
LINE
  8
型材断面
  6
CONTINUOUS
 10
195.0
 20
133.5
 11
-185.0
 21
133.5
  0
LINE
  8
型材断面
  6
CONTINUOUS
 10
145.0
 20
-133.5
 11
145.0
 21
-118.5
  0
LINE
  8
型材断面
  6
CONTINUOUS
 10
195.0
 20
-118.5
 11
145.0
 21
-118.5
  0
ENDBLK
  0
BLOCK
  2
*DIM_0002
 70
    65
 10
0.0
 20
0.0
  0
LINE
  8
寸法
  6
BYBLOCK
 62
     0
 10
7.403067
 20
-61.87628
 11
37.372718
 21
-61.87628
  0
LINE
  8
寸法
  6
BYBLOCK
 62
     0
 10
37.372718
 20
-70.209613
 11
37.372718
 21
-61.87628
  0
POINT
  8
寸法
 62
     0
 10
37.372718
 20
-70.209613
  0
POINT
  8
寸法
 62
     0
 10
37.372718
 20
-61.87628
  0
TEXT
  7
TextStyle03
  8
寸法
  6
CONTINUOUS
 62
     0
 10
37.05
 20
-68.5125
  1
250
 40
3.0
 50
90.0
 72
     5
 11
37.05
 21
-63.6375
  0
ENDBLK
  0
BLOCK
  2
*DIM_0003
 70
    65
 10
0.0
 20
0.0
  0
LINE
  8
寸法
  6
BYBLOCK
 62
     0
 10
-78.596933
 20
-13.511205
 11
-78.596933
 21
-13.121378
  0
LINE
  8
寸法
  6
BYBLOCK
 62
     0
 10
21.403067
 20
-13.121378
 11
-78.596933
 21
-13.121378
  0
POINT
  8
寸法
 62
     0
 10
21.403067
 20
-13.121378
  0
POINT
  8
寸法
 62
     0
 10
-78.596933
 20
-13.121378
  0
TEXT
  7
TextStyle03
  8
寸法
  6
CONTINUOUS
 62
     0
 10
-40.31875
 20
-12.75
  1
呼称寸法　3000
 40
3.0
 72
     5
 11
-16.88125
 21
-12.75
  0
ENDBLK
  0
BLOCK
  2
*DIM_0004
 70
    65
 10
0.0
 20
0.0
  0
LINE
  8
寸法
  6
BYBLOCK
 62
     0
 10
-61.930265
 20
19.183902
 11
-61.930265
 21
14.10329
  0
LINE
  8
寸法
  6
BYBLOCK
 62
     0
 10
4.7364
 20
19.183902
 11
4.7364
 21
14.10329
  0
LINE
  8
寸法
  6
BYBLOCK
 62
     0
 10
-61.930265
 20
14.10329
 11
4.7364
 21
14.10329
  0
POINT
  8
寸法
 62
     0
 10
-61.930265
 20
14.10329
  0
POINT
  8
寸法
 62
     0
 10
4.7364
 20
14.10329
  0
TEXT
  7
TextStyle03
  8
寸法
  6
CONTINUOUS
 62
     0
 10
-31.88125
 20
14.475
  1
2000
 40
3.0
 72
     5
 11
-25.31875
 21
14.475
  0
ENDBLK
  0
BLOCK
  2
*DIM_0005
 70
    65
 10
0.0
 20
0.0
  0
LINE
  8
寸法
  6
BYBLOCK
 62
     0
 10
102.603
 20
38.814033
 11
102.603
 21
68.369967
  0
LINE
  8
寸法
  6
BYBLOCK
 62
     0
 10
110.936333
 20
68.369967
 11
102.603
 21
68.369967
  0
POINT
  8
寸法
 62
     0
 10
110.936333
 20
68.369967
  0
POINT
  8
寸法
 62
     0
 10
102.603
 20
68.369967
  0
TEXT
  7
TextStyle03
  8
寸法
  6
CONTINUOUS
 62
     0
 10
104.3625
 20
68.725
  1
250
 40
3.0
 72
     5
 11
109.2375
 21
68.725
  0
ENDBLK
  0
BLOCK
  2
*DIM_0006
 70
    65
 10
0.0
 20
0.0
  0
LINE
  8
寸法
  6
BYBLOCK
 62
     0
 10
55.422717
 20
22.814033
 11
55.422717
 21
52.814033
  0
POINT
  8
寸法
 62
     0
 10
55.422717
 20
22.814033
  0
POINT
  8
寸法
 62
     0
 10
55.422717
 20
52.814033
  0
TEXT
  7
TextStyle03
  8
寸法
  6
CONTINUOUS
 62
     0
 10
55.1
 20
26.9
  1
呼称寸法　900
 40
3.0
 50
90.0
 72
     5
 11
55.1
 21
48.65
  0
ENDBLK
  0
BLOCK
  2
*DIM_0007
 70
    65
 10
0.0
 20
0.0
  0
LINE
  8
寸法
  6
BYBLOCK
 62
     0
 10
111.519617
 20
20.20722
 11
55.422717
 21
20.20722
  0
LINE
  8
寸法
  6
BYBLOCK
 62
     0
 10
55.422717
 20
22.814033
 11
55.422717
 21
20.20722
  0
POINT
  8
寸法
 62
     0
 10
55.422717
 20
22.814033
  0
POINT
  8
寸法
 62
     0
 10
55.422717
 20
20.20722
  0
TEXT
  7
TextStyle03
  8
寸法
  6
CONTINUOUS
 62
     0
 10
55.025
 20
11.46875
  1
78.2
 40
3.0
 50
90.0
 72
     5
 11
55.025
 21
18.03125
  0
ENDBLK
  0
BLOCK
  2
*DIM_0008
 70
    65
 10
0.0
 20
0.0
  0
LINE
  8
寸法
  6
BYBLOCK
 62
     0
 10
111.519617
 20
55.420845
 11
55.422717
 21
55.420845
  0
LINE
  8
寸法
  6
BYBLOCK
 62
     0
 10
55.422717
 20
52.814033
 11
55.422717
 21
55.420845
  0
POINT
  8
寸法
 62
     0
 10
55.422717
 20
52.814033
  0
POINT
  8
寸法
 62
     0
 10
55.422717
 20
55.420845
  0
TEXT
  7
TextStyle03
  8
寸法
  6
CONTINUOUS
 62
     0
 10
55.025
 20
57.56875
  1
78.2
 40
3.0
 50
90.0
 72
     5
 11
55.025
 21
64.13125
  0
ENDBLK
  0
BLOCK
  2
*DIM_0009
 70
    65
 10
0.0
 20
0.0
  0
LINE
  8
寸法
  6
BYBLOCK
 62
     0
 10
110.936333
 20
55.4807
 11
110.936333
 21
68.369967
  0
LINE
  8
寸法
  6
BYBLOCK
 62
     0
 10
113.019617
 20
56.420845
 11
113.019617
 21
68.369967
  0
LINE
  8
寸法
  6
BYBLOCK
 62
     0
 10
110.936333
 20
68.369967
 11
113.019617
 21
68.369967
  0
POINT
  8
寸法
 62
     0
 10
110.936333
 20
68.369967
  0
POINT
  8
寸法
 62
     0
 10
113.019617
 20
68.369967
  0
TEXT
  7
TextStyle03
  8
寸法
  6
CONTINUOUS
 62
     0
 10
115.44375
 20
68.725
  1
62.5
 40
3.0
 72
     5
 11
122.00625
 21
68.725
  0
ENDBLK
  0
BLOCK
  2
*DIM_0010
 70
    65
 10
0.0
 20
0.0
  0
LINE
  8
寸法
  6
BYBLOCK
 62
     0
 10
24.069735
 20
-70.209613
 11
37.372718
 21
-70.209613
  0
LINE
  8
寸法
  6
BYBLOCK
 62
     0
 10
25.00988
 20
-72.292897
 11
37.372718
 21
-72.292897
  0
LINE
  8
寸法
  6
BYBLOCK
 62
     0
 10
37.372718
 20
-70.209613
 11
37.372718
 21
-72.292897
  0
POINT
  8
寸法
 62
     0
 10
37.372718
 20
-70.209613
  0
POINT
  8
寸法
 62
     0
 10
37.372718
 20
-72.292897
  0
TEXT
  7
TextStyle03
  8
寸法
  6
CONTINUOUS
 62
     0
 10
36.975
 20
-81.30625
  1
62.5
 40
3.0
 50
90.0
 72
     5
 11
36.975
 21
-74.74375
  0
ENDBLK
  0
BLOCK
  2
*DIM_0011
 70
    65
 10
0.0
 20
0.0
  0
LINE
  8
寸法
  6
BYBLOCK
 62
     0
 10
24.00988
 20
-70.792897
 11
24.00988
 21
-13.121378
  0
LINE
  8
寸法
  6
BYBLOCK
 62
     0
 10
21.403067
 20
-13.121378
 11
24.00988
 21
-13.121378
  0
POINT
  8
寸法
 62
     0
 10
21.403067
 20
-13.121378
  0
POINT
  8
寸法
 62
     0
 10
24.00988
 20
-13.121378
  0
TEXT
  7
TextStyle03
  8
寸法
  6
CONTINUOUS
 62
     0
 10
26.14375
 20
-12.75
  1
78.2
 40
3.0
 72
     5
 11
32.70625
 21
-12.75
  0
ENDBLK
  0
BLOCK
  2
*DIM_0012
 70
    65
 10
0.0
 20
0.0
  0
LINE
  8
寸法
  6
BYBLOCK
 62
     0
 10
-81.203745
 20
-70.792897
 11
-81.203745
 21
-13.121378
  0
LINE
  8
寸法
  6
BYBLOCK
 62
     0
 10
-78.596933
 20
-13.121378
 11
-81.203745
 21
-13.121378
  0
POINT
  8
寸法
 62
     0
 10
-78.596933
 20
-13.121378
  0
POINT
  8
寸法
 62
     0
 10
-81.203745
 20
-13.121378
  0
TEXT
  7
TextStyle03
  8
寸法
  6
CONTINUOUS
 62
     0
 10
-89.95625
 20
-12.75
  1
78.2
 40
3.0
 72
     5
 11
-83.39375
 21
-12.75
  0
ENDBLK
  0
BLOCK
  2
*GRP_0013
 70
    65
 10
0.0
 20
0.0
  0
LINE
  8
別途部材
  6
CONTINUOUS
 62
    96
 10
-80.263598
 20
-70.209613
 11
-80.663598
 21
-71.209613
  0
ARC
  8
別途部材
  6
CONTINUOUS
 10
-63.596932
 20
-79.542947
 40
17.666667
 50
90.0
 51
148.109204
  0
LINE
  8
別途部材
  6
CONTINUOUS
 62
    96
 10
-80.263598
 20
-70.209613
 11
-28.596933
 21
-70.209613
  0
LINE
  8
別途部材
  6
CONTINUOUS
 10
-80.663598
 20
-71.209613
 11
-28.596933
 21
-71.209613
  0
LINE
  8
別途部材
  6
CONTINUOUS
 10
-29.096933
 20
-60.87628
 11
-30.096933
 21
-61.87628
  0
LINE
  8
別途部材
  6
CONTINUOUS
 10
-31.096933
 20
-61.87628
 11
-32.096933
 21
-60.87628
  0
LINE
  8
別途部材
  6
CONTINUOUS
 10
-33.096933
 20
-60.87628
 11
-34.096933
 21
-61.87628
  0
LINE
  8
別途部材
  6
CONTINUOUS
 10
-32.096933
 20
-60.87628
 11
-33.096933
 21
-60.87628
  0
LINE
  8
別途部材
  6
CONTINUOUS
 10
-29.096933
 20
-60.87628
 11
-28.596933
 21
-60.87628
  0
LINE
  8
別途部材
  6
CONTINUOUS
 10
-35.096933
 20
-61.87628
 11
-36.096933
 21
-60.87628
  0
LINE
  8
別途部材
  6
CONTINUOUS
 10
-37.096933
 20
-60.87628
 11
-38.096933
 21
-61.87628
  0
LINE
  8
別途部材
  6
CONTINUOUS
 10
-36.096933
 20
-60.87628
 11
-37.096933
 21
-60.87628
  0
LINE
  8
別途部材
  6
CONTINUOUS
 10
-39.096933
 20
-61.87628
 11
-40.096933
 21
-60.87628
  0
LINE
  8
別途部材
  6
CONTINUOUS
 10
-41.096933
 20
-60.87628
 11
-42.096933
 21
-61.87628
  0
LINE
  8
別途部材
  6
CONTINUOUS
 10
-40.096933
 20
-60.87628
 11
-41.096933
 21
-60.87628
  0
LINE
  8
別途部材
  6
CONTINUOUS
 10
-43.096933
 20
-61.87628
 11
-44.096933
 21
-60.87628
  0
LINE
  8
別途部材
  6
CONTINUOUS
 10
-45.096933
 20
-60.87628
 11
-46.096933
 21
-61.87628
  0
LINE
  8
別途部材
  6
CONTINUOUS
 10
-44.096933
 20
-60.87628
 11
-45.096933
 21
-60.87628
  0
LINE
  8
別途部材
  6
CONTINUOUS
 10
-47.096933
 20
-61.87628
 11
-48.096933
 21
-60.87628
  0
LINE
  8
別途部材
  6
CONTINUOUS
 10
-49.096933
 20
-60.87628
 11
-50.096933
 21
-61.87628
  0
LINE
  8
別途部材
  6
CONTINUOUS
 10
-48.096933
 20
-60.87628
 11
-49.096933
 21
-60.87628
  0
LINE
  8
別途部材
  6
CONTINUOUS
 10
-51.096933
 20
-61.87628
 11
-52.096933
 21
-60.87628
  0
LINE
  8
別途部材
  6
CONTINUOUS
 10
-53.096933
 20
-60.87628
 11
-54.096933
 21
-61.87628
  0
LINE
  8
別途部材
  6
CONTINUOUS
 10
-52.096933
 20
-60.87628
 11
-53.096933
 21
-60.87628
  0
LINE
  8
別途部材
  6
CONTINUOUS
 10
-55.096933
 20
-61.87628
 11
-56.096933
 21
-60.87628
  0
LINE
  8
別途部材
  6
CONTINUOUS
 10
-57.096933
 20
-60.87628
 11
-58.096933
 21
-61.87628
  0
LINE
  8
別途部材
  6
CONTINUOUS
 10
-56.096933
 20
-60.87628
 11
-57.096933
 21
-60.87628
  0
LINE
  8
別途部材
  6
CONTINUOUS
 10
-59.096933
 20
-61.87628
 11
-60.096933
 21
-60.87628
  0
LINE
  8
別途部材
  6
CONTINUOUS
 10
-61.096933
 20
-60.87628
 11
-62.096933
 21
-61.87628
  0
LINE
  8
別途部材
  6
CONTINUOUS
 10
-60.096933
 20
-60.87628
 11
-61.096933
 21
-60.87628
  0
LINE
  8
別途部材
  6
CONTINUOUS
 10
-58.096933
 20
-61.87628
 11
-59.096933
 21
-61.87628
  0
LINE
  8
別途部材
  6
CONTINUOUS
 10
-54.096933
 20
-61.87628
 11
-55.096933
 21
-61.87628
  0
LINE
  8
別途部材
  6
CONTINUOUS
 10
-50.096933
 20
-61.87628
 11
-51.096933
 21
-61.87628
  0
LINE
  8
別途部材
  6
CONTINUOUS
 10
-46.096933
 20
-61.87628
 11
-47.096933
 21
-61.87628
  0
LINE
  8
別途部材
  6
CONTINUOUS
 10
-42.096933
 20
-61.87628
 11
-43.096933
 21
-61.87628
  0
LINE
  8
別途部材
  6
CONTINUOUS
 10
-38.096933
 20
-61.87628
 11
-39.096933
 21
-61.87628
  0
LINE
  8
別途部材
  6
CONTINUOUS
 10
-34.096933
 20
-61.87628
 11
-35.096933
 21
-61.87628
  0
LINE
  8
別途部材
  6
CONTINUOUS
 10
-31.096933
 20
-61.87628
 11
-30.096933
 21
-61.87628
  0
LINE
  8
別途部材
  6
CONTINUOUS
 10
-62.096933
 20
-61.87628
 11
-62.096933
 21
-70.209613
  0
LINE
  8
別途部材
  6
CONTINUOUS
 10
-61.096933
 20
-60.87628
 11
-61.096933
 21
-70.209613
  0
LINE
  8
別途部材
  6
CONTINUOUS
 10
-59.096933
 20
-61.87628
 11
-59.096933
 21
-70.209613
  0
LINE
  8
別途部材
  6
CONTINUOUS
 10
-60.096933
 20
-60.87628
 11
-60.096933
 21
-70.209613
  0
LINE
  8
別途部材
  6
CONTINUOUS
 10
-57.096933
 20
-60.87628
 11
-57.096933
 21
-70.209613
  0
LINE
  8
別途部材
  6
CONTINUOUS
 10
-58.096933
 20
-61.87628
 11
-58.096933
 21
-70.209613
  0
LINE
  8
別途部材
  6
CONTINUOUS
 10
-54.096933
 20
-61.87628
 11
-54.096933
 21
-70.209613
  0
LINE
  8
別途部材
  6
CONTINUOUS
 10
-53.096933
 20
-60.87628
 11
-53.096933
 21
-70.209613
  0
LINE
  8
別途部材
  6
CONTINUOUS
 10
-52.096933
 20
-60.87628
 11
-52.096933
 21
-70.209613
  0
LINE
  8
別途部材
  6
CONTINUOUS
 10
-55.096933
 20
-61.87628
 11
-55.096933
 21
-70.209613
  0
LINE
  8
別途部材
  6
CONTINUOUS
 10
-56.096933
 20
-60.87628
 11
-56.096933
 21
-70.209613
  0
LINE
  8
別途部材
  6
CONTINUOUS
 10
-48.096933
 20
-60.87628
 11
-48.096933
 21
-70.209613
  0
LINE
  8
別途部材
  6
CONTINUOUS
 10
-50.096933
 20
-61.87628
 11
-50.096933
 21
-70.209613
  0
LINE
  8
別途部材
  6
CONTINUOUS
 10
-51.096933
 20
-61.87628
 11
-51.096933
 21
-70.209613
  0
LINE
  8
別途部材
  6
CONTINUOUS
 10
-49.096933
 20
-60.87628
 11
-49.096933
 21
-70.209613
  0
LINE
  8
別途部材
  6
CONTINUOUS
 10
-47.096933
 20
-61.87628
 11
-47.096933
 21
-70.209613
  0
LINE
  8
別途部材
  6
CONTINUOUS
 10
-45.096933
 20
-60.87628
 11
-45.096933
 21
-70.209613
  0
LINE
  8
別途部材
  6
CONTINUOUS
 10
-44.096933
 20
-60.87628
 11
-44.096933
 21
-70.209613
  0
LINE
  8
別途部材
  6
CONTINUOUS
 10
-42.096933
 20
-61.87628
 11
-42.096933
 21
-70.209613
  0
LINE
  8
別途部材
  6
CONTINUOUS
 10
-43.096933
 20
-61.87628
 11
-43.096933
 21
-70.209613
  0
LINE
  8
別途部材
  6
CONTINUOUS
 10
-46.096933
 20
-61.87628
 11
-46.096933
 21
-70.209613
  0
LINE
  8
別途部材
  6
CONTINUOUS
 10
-41.096933
 20
-60.87628
 11
-41.096933
 21
-70.209613
  0
LINE
  8
別途部材
  6
CONTINUOUS
 10
-39.096933
 20
-61.87628
 11
-39.096933
 21
-70.209613
  0
LINE
  8
別途部材
  6
CONTINUOUS
 10
-40.096933
 20
-60.87628
 11
-40.096933
 21
-70.209613
  0
LINE
  8
別途部材
  6
CONTINUOUS
 10
-38.096933
 20
-61.87628
 11
-38.096933
 21
-70.209613
  0
LINE
  8
別途部材
  6
CONTINUOUS
 10
-37.096933
 20
-60.87628
 11
-37.096933
 21
-70.209613
  0
LINE
  8
別途部材
  6
CONTINUOUS
 10
-35.096933
 20
-61.87628
 11
-35.096933
 21
-70.209613
  0
LINE
  8
別途部材
  6
CONTINUOUS
 10
-36.096933
 20
-60.87628
 11
-36.096933
 21
-70.209613
  0
LINE
  8
別途部材
  6
CONTINUOUS
 10
-34.096933
 20
-61.87628
 11
-34.096933
 21
-70.209613
  0
LINE
  8
別途部材
  6
CONTINUOUS
 10
-33.096933
 20
-60.87628
 11
-33.096933
 21
-70.209613
  0
LINE
  8
別途部材
  6
CONTINUOUS
 10
-31.096933
 20
-61.87628
 11
-31.096933
 21
-70.209613
  0
LINE
  8
別途部材
  6
CONTINUOUS
 10
-32.096933
 20
-60.87628
 11
-32.096933
 21
-70.209613
  0
LINE
  8
別途部材
  6
CONTINUOUS
 10
-30.096933
 20
-61.87628
 11
-30.096933
 21
-70.209613
  0
LINE
  8
別途部材
  6
CONTINUOUS
 10
-29.096933
 20
-60.87628
 11
-29.096933
 21
-70.209613
  0
LINE
  8
別途部材
  6
CONTINUOUS
 10
-62.096933
 20
-61.87628
 11
-63.596933
 21
-61.87628
  0
LINE
  8
別途部材
  6
CONTINUOUS
 62
    96
 10
23.069735
 20
-70.209613
 11
23.469735
 21
-71.209613
  0
ARC
  8
別途部材
  6
CONTINUOUS
 10
6.403068
 20
-79.542947
 40
17.666667
 50
31.890796
 51
90.0
  0
LINE
  8
別途部材
  6
CONTINUOUS
 62
    96
 10
23.069735
 20
-70.209613
 11
-28.596933
 21
-70.209613
  0
LINE
  8
別途部材
  6
CONTINUOUS
 10
23.469735
 20
-71.209613
 11
-28.596933
 21
-71.209613
  0
LINE
  8
別途部材
  6
CONTINUOUS
 10
-28.096933
 20
-60.87628
 11
-27.096933
 21
-61.87628
  0
LINE
  8
別途部材
  6
CONTINUOUS
 10
-26.096933
 20
-61.87628
 11
-25.096933
 21
-60.87628
  0
LINE
  8
別途部材
  6
CONTINUOUS
 10
-24.096933
 20
-60.87628
 11
-23.096933
 21
-61.87628
  0
LINE
  8
別途部材
  6
CONTINUOUS
 10
-25.096933
 20
-60.87628
 11
-24.096933
 21
-60.87628
  0
LINE
  8
別途部材
  6
CONTINUOUS
 10
-28.096933
 20
-60.87628
 11
-28.596933
 21
-60.87628
  0
LINE
  8
別途部材
  6
CONTINUOUS
 10
-22.096933
 20
-61.87628
 11
-21.096933
 21
-60.87628
  0
LINE
  8
別途部材
  6
CONTINUOUS
 10
-20.096933
 20
-60.87628
 11
-19.096933
 21
-61.87628
  0
LINE
  8
別途部材
  6
CONTINUOUS
 10
-21.096933
 20
-60.87628
 11
-20.096933
 21
-60.87628
  0
LINE
  8
別途部材
  6
CONTINUOUS
 10
-18.096933
 20
-61.87628
 11
-17.096933
 21
-60.87628
  0
LINE
  8
別途部材
  6
CONTINUOUS
 10
-16.096933
 20
-60.87628
 11
-15.096933
 21
-61.87628
  0
LINE
  8
別途部材
  6
CONTINUOUS
 10
-17.096933
 20
-60.87628
 11
-16.096933
 21
-60.87628
  0
LINE
  8
別途部材
  6
CONTINUOUS
 10
-14.096933
 20
-61.87628
 11
-13.096933
 21
-60.87628
  0
LINE
  8
別途部材
  6
CONTINUOUS
 10
-12.096933
 20
-60.87628
 11
-11.096933
 21
-61.87628
  0
LINE
  8
別途部材
  6
CONTINUOUS
 10
-13.096933
 20
-60.87628
 11
-12.096933
 21
-60.87628
  0
LINE
  8
別途部材
  6
CONTINUOUS
 10
-10.096933
 20
-61.87628
 11
-9.096933
 21
-60.87628
  0
LINE
  8
別途部材
  6
CONTINUOUS
 10
-8.096933
 20
-60.87628
 11
-7.096933
 21
-61.87628
  0
LINE
  8
別途部材
  6
CONTINUOUS
 10
-9.096933
 20
-60.87628
 11
-8.096933
 21
-60.87628
  0
LINE
  8
別途部材
  6
CONTINUOUS
 10
-6.096933
 20
-61.87628
 11
-5.096933
 21
-60.87628
  0
LINE
  8
別途部材
  6
CONTINUOUS
 10
-4.096933
 20
-60.87628
 11
-3.096933
 21
-61.87628
  0
LINE
  8
別途部材
  6
CONTINUOUS
 10
-5.096933
 20
-60.87628
 11
-4.096933
 21
-60.87628
  0
LINE
  8
別途部材
  6
CONTINUOUS
 10
-2.096933
 20
-61.87628
 11
-1.096933
 21
-60.87628
  0
LINE
  8
別途部材
  6
CONTINUOUS
 10
-0.096933
 20
-60.87628
 11
0.903067
 21
-61.87628
  0
LINE
  8
別途部材
  6
CONTINUOUS
 10
-1.096933
 20
-60.87628
 11
-0.096933
 21
-60.87628
  0
LINE
  8
別途部材
  6
CONTINUOUS
 10
1.903067
 20
-61.87628
 11
2.903067
 21
-60.87628
  0
LINE
  8
別途部材
  6
CONTINUOUS
 10
3.903067
 20
-60.87628
 11
4.903067
 21
-61.87628
  0
LINE
  8
別途部材
  6
CONTINUOUS
 10
2.903067
 20
-60.87628
 11
3.903067
 21
-60.87628
  0
LINE
  8
別途部材
  6
CONTINUOUS
 10
0.903067
 20
-61.87628
 11
1.903067
 21
-61.87628
  0
LINE
  8
別途部材
  6
CONTINUOUS
 10
-3.096933
 20
-61.87628
 11
-2.096933
 21
-61.87628
  0
LINE
  8
別途部材
  6
CONTINUOUS
 10
-7.096933
 20
-61.87628
 11
-6.096933
 21
-61.87628
  0
LINE
  8
別途部材
  6
CONTINUOUS
 10
-11.096933
 20
-61.87628
 11
-10.096933
 21
-61.87628
  0
LINE
  8
別途部材
  6
CONTINUOUS
 10
-15.096933
 20
-61.87628
 11
-14.096933
 21
-61.87628
  0
LINE
  8
別途部材
  6
CONTINUOUS
 10
-19.096933
 20
-61.87628
 11
-18.096933
 21
-61.87628
  0
LINE
  8
別途部材
  6
CONTINUOUS
 10
-23.096933
 20
-61.87628
 11
-22.096933
 21
-61.87628
  0
LINE
  8
別途部材
  6
CONTINUOUS
 10
-26.096933
 20
-61.87628
 11
-27.096933
 21
-61.87628
  0
LINE
  8
別途部材
  6
CONTINUOUS
 10
4.903067
 20
-61.87628
 11
4.903067
 21
-70.209613
  0
LINE
  8
別途部材
  6
CONTINUOUS
 10
3.903067
 20
-60.87628
 11
3.903067
 21
-70.209613
  0
LINE
  8
別途部材
  6
CONTINUOUS
 10
1.903067
 20
-61.87628
 11
1.903067
 21
-70.209613
  0
LINE
  8
別途部材
  6
CONTINUOUS
 10
2.903067
 20
-60.87628
 11
2.903067
 21
-70.209613
  0
LINE
  8
別途部材
  6
CONTINUOUS
 10
-0.096933
 20
-60.87628
 11
-0.096933
 21
-70.209613
  0
LINE
  8
別途部材
  6
CONTINUOUS
 10
0.903067
 20
-61.87628
 11
0.903067
 21
-70.209613
  0
LINE
  8
別途部材
  6
CONTINUOUS
 10
-3.096933
 20
-61.87628
 11
-3.096933
 21
-70.209613
  0
LINE
  8
別途部材
  6
CONTINUOUS
 10
-4.096933
 20
-60.87628
 11
-4.096933
 21
-70.209613
  0
LINE
  8
別途部材
  6
CONTINUOUS
 10
-5.096933
 20
-60.87628
 11
-5.096933
 21
-70.209613
  0
LINE
  8
別途部材
  6
CONTINUOUS
 10
-2.096933
 20
-61.87628
 11
-2.096933
 21
-70.209613
  0
LINE
  8
別途部材
  6
CONTINUOUS
 10
-1.096933
 20
-60.87628
 11
-1.096933
 21
-70.209613
  0
LINE
  8
別途部材
  6
CONTINUOUS
 10
-9.096933
 20
-60.87628
 11
-9.096933
 21
-70.209613
  0
LINE
  8
別途部材
  6
CONTINUOUS
 10
-7.096933
 20
-61.87628
 11
-7.096933
 21
-70.209613
  0
LINE
  8
別途部材
  6
CONTINUOUS
 10
-6.096933
 20
-61.87628
 11
-6.096933
 21
-70.209613
  0
LINE
  8
別途部材
  6
CONTINUOUS
 10
-8.096933
 20
-60.87628
 11
-8.096933
 21
-70.209613
  0
LINE
  8
別途部材
  6
CONTINUOUS
 10
-10.096933
 20
-61.87628
 11
-10.096933
 21
-70.209613
  0
LINE
  8
別途部材
  6
CONTINUOUS
 10
-12.096933
 20
-60.87628
 11
-12.096933
 21
-70.209613
  0
LINE
  8
別途部材
  6
CONTINUOUS
 10
-13.096933
 20
-60.87628
 11
-13.096933
 21
-70.209613
  0
LINE
  8
別途部材
  6
CONTINUOUS
 10
-15.096933
 20
-61.87628
 11
-15.096933
 21
-70.209613
  0
LINE
  8
別途部材
  6
CONTINUOUS
 10
-14.096933
 20
-61.87628
 11
-14.096933
 21
-70.209613
  0
LINE
  8
別途部材
  6
CONTINUOUS
 10
-11.096933
 20
-61.87628
 11
-11.096933
 21
-70.209613
  0
LINE
  8
別途部材
  6
CONTINUOUS
 10
-16.096933
 20
-60.87628
 11
-16.096933
 21
-70.209613
  0
LINE
  8
別途部材
  6
CONTINUOUS
 10
-18.096933
 20
-61.87628
 11
-18.096933
 21
-70.209613
  0
LINE
  8
別途部材
  6
CONTINUOUS
 10
-17.096933
 20
-60.87628
 11
-17.096933
 21
-70.209613
  0
LINE
  8
別途部材
  6
CONTINUOUS
 10
-19.096933
 20
-61.87628
 11
-19.096933
 21
-70.209613
  0
LINE
  8
別途部材
  6
CONTINUOUS
 10
-20.096933
 20
-60.87628
 11
-20.096933
 21
-70.209613
  0
LINE
  8
別途部材
  6
CONTINUOUS
 10
-22.096933
 20
-61.87628
 11
-22.096933
 21
-70.209613
  0
LINE
  8
別途部材
  6
CONTINUOUS
 10
-21.096933
 20
-60.87628
 11
-21.096933
 21
-70.209613
  0
LINE
  8
別途部材
  6
CONTINUOUS
 10
-23.096933
 20
-61.87628
 11
-23.096933
 21
-70.209613
  0
LINE
  8
別途部材
  6
CONTINUOUS
 10
-24.096933
 20
-60.87628
 11
-24.096933
 21
-70.209613
  0
LINE
  8
別途部材
  6
CONTINUOUS
 10
-26.096933
 20
-61.87628
 11
-26.096933
 21
-70.209613
  0
LINE
  8
別途部材
  6
CONTINUOUS
 10
-25.096933
 20
-60.87628
 11
-25.096933
 21
-70.209613
  0
LINE
  8
別途部材
  6
CONTINUOUS
 10
-27.096933
 20
-61.87628
 11
-27.096933
 21
-70.209613
  0
LINE
  8
別途部材
  6
CONTINUOUS
 10
-28.096933
 20
-60.87628
 11
-28.096933
 21
-70.209613
  0
LINE
  8
別途部材
  6
CONTINUOUS
 10
4.903067
 20
-61.87628
 11
6.403067
 21
-61.87628
  0
ENDBLK
  0
BLOCK
  2
*DIM_0014
 70
    65
 10
0.0
 20
0.0
  0
LINE
  8
寸法
  6
BYBLOCK
 62
     0
 10
145.328765
 20
-87.823622
 11
155.941423
 21
-87.823622
  0
LINE
  8
寸法
  6
BYBLOCK
 62
     0
 10
145.328765
 20
-58.49029
 11
155.941423
 21
-58.49029
  0
LINE
  8
寸法
  6
BYBLOCK
 62
     0
 10
155.941423
 20
-87.823622
 11
155.941423
 21
-58.49029
  0
POINT
  8
寸法
 62
     0
 10
155.941423
 20
-87.823622
  0
POINT
  8
寸法
 62
     0
 10
155.941423
 20
-58.49029
  0
TEXT
  7
TextStyle03
  8
寸法
  6
CONTINUOUS
 62
     0
 10
155.55
 20
-75.6125
  1
880
 40
3.0
 50
90.0
 72
     5
 11
155.55
 21
-70.7375
  0
ENDBLK
  0
BLOCK
  2
*DIM_0015
 70
    65
 10
0.0
 20
0.0
  0
LINE
  8
寸法
  6
BYBLOCK
 62
     0
 10
-81.596933
 20
47.814033
 11
-94.88977
 21
47.814033
  0
LINE
  8
寸法
  6
BYBLOCK
 62
     0
 10
-81.596933
 20
27.814033
 11
-94.88977
 21
27.814033
  0
LINE
  8
寸法
  6
BYBLOCK
 62
     0
 10
-94.88977
 20
47.814033
 11
-94.88977
 21
27.814033
  0
POINT
  8
寸法
 62
     0
 10
-94.88977
 20
47.814033
  0
POINT
  8
寸法
 62
     0
 10
-94.88977
 20
27.814033
  0
TEXT
  7
TextStyle03
  8
寸法
  6
CONTINUOUS
 62
     0
 10
-95.25
 20
35.3625
  1
600
 40
3.0
 50
90.0
 72
     5
 11
-95.25
 21
40.2375
  0
ENDBLK
  0
BLOCK
  2
*DIM_0016
 70
    65
 10
0.0
 20
0.0
  0
LINE
  8
寸法
  6
BYBLOCK
 62
     0
 10
-68.596933
 20
55.814033
 11
-68.596933
 21
84.922105
  0
LINE
  8
寸法
  6
BYBLOCK
 62
     0
 10
-41.930265
 20
55.814033
 11
-41.930265
 21
84.922105
  0
LINE
  8
寸法
  6
BYBLOCK
 62
     0
 10
-68.596933
 20
84.922105
 11
-41.930265
 21
84.922105
  0
POINT
  8
寸法
 62
     0
 10
-68.596933
 20
84.922105
  0
POINT
  8
寸法
 62
     0
 10
-41.930265
 20
84.922105
  0
TEXT
  7
TextStyle03
  8
寸法
  6
CONTINUOUS
 62
     0
 10
-57.7375
 20
85.275
  1
800
 40
3.0
 72
     5
 11
-52.8625
 21
85.275
  0
ENDBLK
  0
BLOCK
  2
*DIM_0017
 70
    65
 10
0.0
 20
0.0
  0
LINE
  8
寸法
  6
BYBLOCK
 62
     0
 10
-15.2636
 20
55.814033
 11
-15.2636
 21
84.922105
  0
LINE
  8
寸法
  6
BYBLOCK
 62
     0
 10
-41.930265
 20
84.922105
 11
-15.2636
 21
84.922105
  0
POINT
  8
寸法
 62
     0
 10
-15.2636
 20
84.922105
  0
TEXT
  7
TextStyle03
  8
寸法
  6
CONTINUOUS
 62
     0
 10
-31.0625
 20
85.275
  1
800
 40
3.0
 72
     5
 11
-26.1875
 21
85.275
  0
ENDBLK
  0
BLOCK
  2
*DIM_0018
 70
    65
 10
0.0
 20
0.0
  0
LINE
  8
寸法
  6
BYBLOCK
 62
     0
 10
11.403067
 20
55.814033
 11
11.403067
 21
84.922105
  0
LINE
  8
寸法
  6
BYBLOCK
 62
     0
 10
-15.2636
 20
84.922105
 11
11.403067
 21
84.922105
  0
POINT
  8
寸法
 62
     0
 10
11.403067
 20
84.922105
  0
TEXT
  7
TextStyle03
  8
寸法
  6
CONTINUOUS
 62
     0
 10
-4.3875
 20
85.275
  1
800
 40
3.0
 72
     5
 11
0.4875
 21
85.275
  0
ENDBLK
  0
BLOCK
  2
*DIM_0019
 70
    65
 10
0.0
 20
0.0
  0
LINE
  8
寸法
  6
CONTINUOUS
 10
109.952097
 20
-55.999053
 11
109.952097
 21
-43.730362
  0
LINE
  8
寸法
  6
CONTINUOUS
 10
142.328765
 20
-55.999053
 11
142.328765
 21
-43.730362
  0
LINE
  8
寸法
  6
CONTINUOUS
 10
109.952097
 20
-43.730362
 11
142.328765
 21
-43.730362
  0
POINT
  8
寸法
 10
109.952097
 20
-43.730362
  0
POINT
  8
寸法
 10
142.328765
 20
-43.730362
  0
TEXT
  7
TextStyle03
  8
寸法
  6
CONTINUOUS
 10
122.0
 20
-43.375
  1
971.3
 40
3.0
 72
     5
 11
130.25
 21
-43.375
  0
ENDBLK
  0
BLOCK
  2
*GRP_0020
 70
    65
 10
0.0
 20
0.0
  0
LINE
  8
ボルト／ビス
  6
CONTINUOUS
 10
-79.2636
 20
-70.209613
 11
-79.2636
 21
-69.742945
  0
LINE
  8
ボルト／ビス
  6
CONTINUOUS
 10
-79.630265
 20
-70.209613
 11
-79.630265
 21
-70.142945
  0
LINE
  8
ボルト／ビス
  6
CONTINUOUS
 10
-79.630265
 20
-70.142945
 11
-78.896933
 21
-70.142945
  0
LINE
  8
ボルト／ビス
  6
CONTINUOUS
 10
-78.896933
 20
-70.142945
 11
-78.896933
 21
-70.209613
  0
LINE
  8
ボルト／ビス
  6
CONTINUOUS
 10
-79.630265
 20
-70.209613
 11
-78.896933
 21
-70.209613
  0
LINE
  8
ボルト／ビス
  6
CONTINUOUS
 10
-79.5636
 20
-70.109612
 11
-79.5636
 21
-70.142945
  0
LINE
  8
ボルト／ビス
  6
CONTINUOUS
 10
-79.5636
 20
-70.109612
 11
-78.9636
 21
-70.109612
  0
LINE
  8
ボルト／ビス
  6
CONTINUOUS
 10
-78.9636
 20
-70.109612
 11
-78.9636
 21
-70.142945
  0
LINE
  8
ボルト／ビス
  6
CONTINUOUS
 62
    64
 10
-79.423975
 20
-69.909613
 11
-79.45605
 21
-69.921288
  0
ARC
  8
ボルト／ビス
  6
CONTINUOUS
 62
    64
 10
-79.407935
 20
-70.01459
 40
0.104978
 50
62.721967
 51
90.0
  0
ARC
  8
ボルト／ビス
  6
CONTINUOUS
 62
    64
 10
-79.263598
 20
-70.312014
 40
0.402402
 50
76.165002
 51
103.834985
  0
LINE
  8
ボルト／ビス
  6
CONTINUOUS
 62
    64
 10
-79.103225
 20
-69.909613
 11
-79.07115
 21
-69.921288
  0
ARC
  8
ボルト／ビス
  6
CONTINUOUS
 62
    64
 10
-79.11926
 20
-70.01459
 40
0.104978
 50
90.0
 51
117.278033
  0
LINE
  8
ボルト／ビス
  6
CONTINUOUS
 62
    64
 10
-79.423975
 20
-69.909613
 11
-79.103225
 21
-69.909613
  0
LINE
  8
ボルト／ビス
  6
CONTINUOUS
 62
    64
 10
-79.07115
 20
-69.921288
 11
-79.07115
 21
-70.042945
  0
LINE
  8
ボルト／ビス
  6
CONTINUOUS
 62
    64
 10
-79.167375
 20
-69.921288
 11
-79.167375
 21
-70.042945
  0
LINE
  8
ボルト／ビス
  6
CONTINUOUS
 62
    64
 10
-79.45605
 20
-69.921288
 11
-79.45605
 21
-70.042945
  0
LINE
  8
ボルト／ビス
  6
CONTINUOUS
 62
    64
 10
-79.359825
 20
-69.921288
 11
-79.359825
 21
-70.042945
  0
LINE
  8
ボルト／ビス
  6
CONTINUOUS
 10
-79.45605
 20
-70.042945
 11
-79.07115
 21
-70.042945
  0
LINE
  8
ボルト／ビス
  6
CONTINUOUS
 10
-79.4636
 20
-70.042945
 11
-79.4636
 21
-70.109612
  0
LINE
  8
ボルト／ビス
  6
CONTINUOUS
 10
-79.4636
 20
-70.042945
 11
-79.0636
 21
-70.042945
  0
LINE
  8
ボルト／ビス
  6
CONTINUOUS
 10
-79.0636
 20
-70.042945
 11
-79.0636
 21
-70.109612
  0
ENDBLK
  0
BLOCK
  2
*GRP_0021
 70
    65
 10
0.0
 20
0.0
  0
LINE
  8
ボルト／ビス
  6
CONTINUOUS
 10
22.069735
 20
-70.209613
 11
22.069735
 21
-69.742945
  0
LINE
  8
ボルト／ビス
  6
CONTINUOUS
 10
21.70307
 20
-70.209613
 11
21.70307
 21
-70.142945
  0
LINE
  8
ボルト／ビス
  6
CONTINUOUS
 10
21.70307
 20
-70.142945
 11
22.436403
 21
-70.142945
  0
LINE
  8
ボルト／ビス
  6
CONTINUOUS
 10
22.436403
 20
-70.142945
 11
22.436403
 21
-70.209613
  0
LINE
  8
ボルト／ビス
  6
CONTINUOUS
 10
21.70307
 20
-70.209613
 11
22.436403
 21
-70.209613
  0
LINE
  8
ボルト／ビス
  6
CONTINUOUS
 10
21.769735
 20
-70.109612
 11
21.769735
 21
-70.142945
  0
LINE
  8
ボルト／ビス
  6
CONTINUOUS
 10
21.769735
 20
-70.109612
 11
22.369735
 21
-70.109612
  0
LINE
  8
ボルト／ビス
  6
CONTINUOUS
 10
22.369735
 20
-70.109612
 11
22.369735
 21
-70.142945
  0
LINE
  8
ボルト／ビス
  6
CONTINUOUS
 62
    64
 10
21.90936
 20
-69.909613
 11
21.877285
 21
-69.921288
  0
ARC
  8
ボルト／ビス
  6
CONTINUOUS
 62
    64
 10
21.9254
 20
-70.01459
 40
0.104978
 50
62.721967
 51
90.0
  0
ARC
  8
ボルト／ビス
  6
CONTINUOUS
 62
    64
 10
22.069737
 20
-70.312014
 40
0.402402
 50
76.165002
 51
103.834985
  0
LINE
  8
ボルト／ビス
  6
CONTINUOUS
 62
    64
 10
22.23011
 20
-69.909613
 11
22.262185
 21
-69.921288
  0
ARC
  8
ボルト／ビス
  6
CONTINUOUS
 62
    64
 10
22.214075
 20
-70.01459
 40
0.104978
 50
90.0
 51
117.278033
  0
LINE
  8
ボルト／ビス
  6
CONTINUOUS
 62
    64
 10
21.90936
 20
-69.909613
 11
22.23011
 21
-69.909613
  0
LINE
  8
ボルト／ビス
  6
CONTINUOUS
 62
    64
 10
22.262185
 20
-69.921288
 11
22.262185
 21
-70.042945
  0
LINE
  8
ボルト／ビス
  6
CONTINUOUS
 62
    64
 10
22.16596
 20
-69.921288
 11
22.16596
 21
-70.042945
  0
LINE
  8
ボルト／ビス
  6
CONTINUOUS
 62
    64
 10
21.877285
 20
-69.921288
 11
21.877285
 21
-70.042945
  0
LINE
  8
ボルト／ビス
  6
CONTINUOUS
 62
    64
 10
21.97351
 20
-69.921288
 11
21.97351
 21
-70.042945
  0
LINE
  8
ボルト／ビス
  6
CONTINUOUS
 10
21.877285
 20
-70.042945
 11
22.262185
 21
-70.042945
  0
LINE
  8
ボルト／ビス
  6
CONTINUOUS
 10
21.869735
 20
-70.042945
 11
21.869735
 21
-70.109612
  0
LINE
  8
ボルト／ビス
  6
CONTINUOUS
 10
21.869735
 20
-70.042945
 11
22.269735
 21
-70.042945
  0
LINE
  8
ボルト／ビス
  6
CONTINUOUS
 10
22.269735
 20
-70.042945
 11
22.269735
 21
-70.109612
  0
ENDBLK
  0
BLOCK
  2
*GRP_0022
 70
    65
 10
0.0
 20
0.0
  0
LINE
  8
ボルト／ビス
  6
CONTINUOUS
 10
110.936333
 20
22.147365
 11
110.469665
 21
22.147365
  0
LINE
  8
ボルト／ビス
  6
CONTINUOUS
 10
110.936333
 20
21.7807
 11
110.869665
 21
21.7807
  0
LINE
  8
ボルト／ビス
  6
CONTINUOUS
 10
110.869665
 20
21.7807
 11
110.869665
 21
22.514033
  0
LINE
  8
ボルト／ビス
  6
CONTINUOUS
 10
110.869665
 20
22.514033
 11
110.936333
 21
22.514033
  0
LINE
  8
ボルト／ビス
  6
CONTINUOUS
 10
110.936333
 20
21.7807
 11
110.936333
 21
22.514033
  0
LINE
  8
ボルト／ビス
  6
CONTINUOUS
 10
110.836333
 20
21.847365
 11
110.869665
 21
21.847365
  0
LINE
  8
ボルト／ビス
  6
CONTINUOUS
 10
110.836333
 20
21.847365
 11
110.836333
 21
22.447365
  0
LINE
  8
ボルト／ビス
  6
CONTINUOUS
 10
110.836333
 20
22.447365
 11
110.869665
 21
22.447365
  0
LINE
  8
ボルト／ビス
  6
CONTINUOUS
 62
    64
 10
110.636333
 20
21.98699
 11
110.648007
 21
21.954915
  0
ARC
  8
ボルト／ビス
  6
CONTINUOUS
 62
    64
 10
110.741309
 20
22.003031
 40
0.104978
 50
152.721967
 51
180.0
  0
ARC
  8
ボルト／ビス
  6
CONTINUOUS
 62
    64
 10
111.038733
 20
22.147368
 40
0.402402
 50
166.165002
 51
193.834985
  0
LINE
  8
ボルト／ビス
  6
CONTINUOUS
 62
    64
 10
110.636333
 20
22.30774
 11
110.648007
 21
22.339815
  0
ARC
  8
ボルト／ビス
  6
CONTINUOUS
 62
    64
 10
110.741309
 20
22.291706
 40
0.104978
 50
180.0
 51
207.278033
  0
LINE
  8
ボルト／ビス
  6
CONTINUOUS
 62
    64
 10
110.636333
 20
21.98699
 11
110.636333
 21
22.30774
  0
LINE
  8
ボルト／ビス
  6
CONTINUOUS
 62
    64
 10
110.648007
 20
22.339815
 11
110.769665
 21
22.339815
  0
LINE
  8
ボルト／ビス
  6
CONTINUOUS
 62
    64
 10
110.648007
 20
22.24359
 11
110.769665
 21
22.24359
  0
LINE
  8
ボルト／ビス
  6
CONTINUOUS
 62
    64
 10
110.648007
 20
21.954915
 11
110.769665
 21
21.954915
  0
LINE
  8
ボルト／ビス
  6
CONTINUOUS
 62
    64
 10
110.648007
 20
22.05114
 11
110.769665
 21
22.05114
  0
LINE
  8
ボルト／ビス
  6
CONTINUOUS
 10
110.769665
 20
21.954915
 11
110.769665
 21
22.339815
  0
LINE
  8
ボルト／ビス
  6
CONTINUOUS
 10
110.769665
 20
21.947365
 11
110.836333
 21
21.947365
  0
LINE
  8
ボルト／ビス
  6
CONTINUOUS
 10
110.769665
 20
21.947365
 11
110.769665
 21
22.347365
  0
LINE
  8
ボルト／ビス
  6
CONTINUOUS
 10
110.769665
 20
22.347365
 11
110.836333
 21
22.347365
  0
ENDBLK
  0
BLOCK
  2
*GRP_0023
 70
    65
 10
0.0
 20
0.0
  0
LINE
  8
ボルト／ビス
  6
CONTINUOUS
 10
110.936333
 20
53.4807
 11
110.469665
 21
53.4807
  0
LINE
  8
ボルト／ビス
  6
CONTINUOUS
 10
110.936333
 20
53.114035
 11
110.869665
 21
53.114035
  0
LINE
  8
ボルト／ビス
  6
CONTINUOUS
 10
110.869665
 20
53.114035
 11
110.869665
 21
53.847367
  0
LINE
  8
ボルト／ビス
  6
CONTINUOUS
 10
110.869665
 20
53.847367
 11
110.936333
 21
53.847367
  0
LINE
  8
ボルト／ビス
  6
CONTINUOUS
 10
110.936333
 20
53.114035
 11
110.936333
 21
53.847367
  0
LINE
  8
ボルト／ビス
  6
CONTINUOUS
 10
110.836333
 20
53.1807
 11
110.869665
 21
53.1807
  0
LINE
  8
ボルト／ビス
  6
CONTINUOUS
 10
110.836333
 20
53.1807
 11
110.836333
 21
53.7807
  0
LINE
  8
ボルト／ビス
  6
CONTINUOUS
 10
110.836333
 20
53.7807
 11
110.869665
 21
53.7807
  0
LINE
  8
ボルト／ビス
  6
CONTINUOUS
 62
    64
 10
110.636333
 20
53.320325
 11
110.648007
 21
53.28825
  0
ARC
  8
ボルト／ビス
  6
CONTINUOUS
 62
    64
 10
110.741309
 20
53.336366
 40
0.104978
 50
152.721967
 51
180.0
  0
ARC
  8
ボルト／ビス
  6
CONTINUOUS
 62
    64
 10
111.038733
 20
53.480703
 40
0.402402
 50
166.165002
 51
193.834985
  0
LINE
  8
ボルト／ビス
  6
CONTINUOUS
 62
    64
 10
110.636333
 20
53.641075
 11
110.648007
 21
53.67315
  0
ARC
  8
ボルト／ビス
  6
CONTINUOUS
 62
    64
 10
110.741309
 20
53.625041
 40
0.104978
 50
180.0
 51
207.278033
  0
LINE
  8
ボルト／ビス
  6
CONTINUOUS
 62
    64
 10
110.636333
 20
53.320325
 11
110.636333
 21
53.641075
  0
LINE
  8
ボルト／ビス
  6
CONTINUOUS
 62
    64
 10
110.648007
 20
53.67315
 11
110.769665
 21
53.67315
  0
LINE
  8
ボルト／ビス
  6
CONTINUOUS
 62
    64
 10
110.648007
 20
53.576925
 11
110.769665
 21
53.576925
  0
LINE
  8
ボルト／ビス
  6
CONTINUOUS
 62
    64
 10
110.648007
 20
53.28825
 11
110.769665
 21
53.28825
  0
LINE
  8
ボルト／ビス
  6
CONTINUOUS
 62
    64
 10
110.648007
 20
53.384475
 11
110.769665
 21
53.384475
  0
LINE
  8
ボルト／ビス
  6
CONTINUOUS
 10
110.769665
 20
53.28825
 11
110.769665
 21
53.67315
  0
LINE
  8
ボルト／ビス
  6
CONTINUOUS
 10
110.769665
 20
53.2807
 11
110.836333
 21
53.2807
  0
LINE
  8
ボルト／ビス
  6
CONTINUOUS
 10
110.769665
 20
53.2807
 11
110.769665
 21
53.6807
  0
LINE
  8
ボルト／ビス
  6
CONTINUOUS
 10
110.769665
 20
53.6807
 11
110.836333
 21
53.6807
  0
ENDBLK
  0
ENDSEC
  0
SECTION
  2
ENTITIES
  0
POLYLINE
  8
通り芯
  6
CONTINUOUS
 66
     1
 70
     1
  0
VERTEX
  8
通り芯
 10
-210.0
 20
-148.5
  0
VERTEX
  8
通り芯
 10
210.0
 20
-148.5
  0
VERTEX
  8
通り芯
 10
210.0
 20
148.5
  0
VERTEX
  8
通り芯
 10
-210.0
 20
148.5
  0
SEQEND
  0
INSERT
  2
*GRP_0001
  8
型材断面
  6
CONTINUOUS
 10
0.0
 20
0.0
  0
LINE
  8
型材断面
  6
DASHDOT
 10
21.403067
 20
-77.836442
 11
21.403067
 21
52.814033
  0
LINE
  8
型材断面
  6
DASHDOT
 10
-28.596933
 20
-77.836442
 11
-28.596933
 21
52.814033
  0
LINE
  8
型材断面
  6
DASHDOT
 10
-78.596933
 20
-77.836442
 11
-78.596933
 21
52.814033
  0
LINE
  8
型材断面
  6
DASHDOT
 10
119.07983
 20
52.814033
 11
-78.596933
 21
52.814033
  0
LINE
  8
型材断面
  6
DASHDOT
 10
119.07983
 20
37.814033
 11
-78.596933
 21
37.814033
  0
LINE
  8
型材断面
  6
DASHDOT
 10
119.07983
 20
22.814033
 11
-78.596933
 21
22.814033
  0
LINE
  8
型材断面
  6
CONTINUOUS
 10
-61.930265
 20
55.444162
 11
-63.425895
 21
58.03467
  0
LINE
  8
型材断面
  6
CONTINUOUS
 10
-61.930265
 20
55.444162
 11
-60.434635
 21
58.03467
  0
LINE
  8
型材断面
  6
CONTINUOUS
 10
-60.434635
 20
58.03467
 11
-63.425895
 21
58.03467
  0
LINE
  8
型材断面
  6
CONTINUOUS
 10
-81.227063
 20
37.814033
 11
-83.81757
 21
39.309663
  0
LINE
  8
型材断面
  6
CONTINUOUS
 10
-81.227063
 20
37.814033
 11
-83.81757
 21
36.318403
  0
LINE
  8
型材断面
  6
CONTINUOUS
 10
-83.81757
 20
36.318403
 11
-83.81757
 21
39.309663
  0
LINE
  8
型材断面
  6
CONTINUOUS
 10
-61.930265
 20
20.183902
 11
-63.425895
 21
17.593395
  0
LINE
  8
型材断面
  6
CONTINUOUS
 10
-61.930265
 20
20.183902
 11
-60.434635
 21
17.593395
  0
LINE
  8
型材断面
  6
CONTINUOUS
 10
-60.434635
 20
17.593395
 11
-63.425895
 21
17.593395
  0
LINE
  8
型材断面
  6
CONTINUOUS
 10
-132.475455
 20
97.32138
 11
-133.971085
 21
94.730873
  0
LINE
  8
型材断面
  6
CONTINUOUS
 10
-132.475455
 20
97.32138
 11
-130.979825
 21
94.730873
  0
LINE
  8
型材断面
  6
CONTINUOUS
 10
-130.979825
 20
94.730873
 11
-133.971085
 21
94.730873
  0
LINE
  8
型材断面
  6
CONTINUOUS
 10
-138.498042
 20
93.792277
 11
-92.256265
 21
93.792277
  0
LINE
  8
型材断面
  6
CONTINUOUS
 10
4.7364
 20
55.444162
 11
6.23203
 21
58.03467
  0
LINE
  8
型材断面
  6
CONTINUOUS
 10
4.7364
 20
55.444162
 11
3.24077
 21
58.03467
  0
LINE
  8
型材断面
  6
CONTINUOUS
 10
3.24077
 20
58.03467
 11
6.23203
 21
58.03467
  0
LINE
  8
型材断面
  6
CONTINUOUS
 10
4.7364
 20
20.183902
 11
6.23203
 21
17.593395
  0
LINE
  8
型材断面
  6
CONTINUOUS
 10
4.7364
 20
20.183902
 11
3.24077
 21
17.593395
  0
LINE
  8
型材断面
  6
CONTINUOUS
 10
3.24077
 20
17.593395
 11
6.23203
 21
17.593395
  0
LINE
  8
型材断面
  6
CONTINUOUS
 10
-138.498042
 20
87.978452
 11
-92.256265
 21
87.978452
  0
LINE
  8
型材断面
  6
CONTINUOUS
 10
113.469617
 20
20.65722
 11
113.019617
 21
20.65722
  0
LINE
  8
型材断面
  6
CONTINUOUS
 62
    47
 10
113.019617
 20
20.20722
 11
112.519617
 21
20.20722
  0
LINE
  8
型材断面
  6
CONTINUOUS
 62
    47
 10
112.519617
 20
20.20722
 11
111.936333
 21
22.081677
  0
LINE
  8
型材断面
  6
CONTINUOUS
 10
112.519617
 20
20.20722
 11
112.519617
 21
37.814033
  0
LINE
  8
型材断面
  6
CONTINUOUS
 10
113.469617
 20
20.65722
 11
113.469617
 21
37.814033
  0
LINE
  8
型材断面
  6
CONTINUOUS
 10
113.469617
 20
54.970845
 11
113.019617
 21
54.970845
  0
LINE
  8
型材断面
  6
CONTINUOUS
 62
    47
 10
113.019617
 20
55.420845
 11
112.519617
 21
55.420845
  0
LINE
  8
型材断面
  6
CONTINUOUS
 62
    47
 10
112.519617
 20
55.420845
 11
111.936333
 21
53.546387
  0
LINE
  8
型材断面
  6
CONTINUOUS
 10
112.519617
 20
55.420845
 11
112.519617
 21
37.814033
  0
LINE
  8
型材断面
  6
CONTINUOUS
 10
113.469617
 20
54.970845
 11
113.469617
 21
37.814033
  0
LINE
  8
型材断面
  6
CONTINUOUS
 10
23.469735
 20
20.747365
 11
24.00988
 21
20.20722
  0
LINE
  8
型材断面
  6
CONTINUOUS
 10
24.00988
 20
20.20722
 11
24.00988
 21
37.814033
  0
LINE
  8
型材断面
  6
CONTINUOUS
 10
23.55988
 20
-72.742897
 11
23.55988
 21
-72.292897
  0
LINE
  8
型材断面
  6
CONTINUOUS
 62
    47
 10
24.00988
 20
-72.292897
 11
24.00988
 21
-71.792897
  0
LINE
  8
型材断面
  6
CONTINUOUS
 62
    47
 10
24.00988
 20
-71.792897
 11
22.135422
 21
-71.209613
  0
LINE
  8
型材断面
  6
CONTINUOUS
 10
24.00988
 20
20.20722
 11
-28.596933
 21
20.207235
  0
LINE
  8
型材断面
  6
CONTINUOUS
 10
23.469735
 20
54.8807
 11
24.00988
 21
55.420845
  0
LINE
  8
型材断面
  6
CONTINUOUS
 10
24.00988
 20
55.420845
 11
24.00988
 21
37.814033
  0
LINE
  8
型材断面
  6
CONTINUOUS
 10
24.00988
 20
55.420845
 11
-28.596933
 21
55.42083
  0
LINE
  8
型材断面
  6
CONTINUOUS
 10
-80.6636
 20
54.8807
 11
-81.203745
 21
55.420845
  0
LINE
  8
型材断面
  6
CONTINUOUS
 10
-81.203745
 20
55.420845
 11
-81.203745
 21
37.814033
  0
LINE
  8
型材断面
  6
CONTINUOUS
 10
-81.203745
 20
55.420845
 11
-28.596933
 21
55.42083
  0
LINE
  8
型材断面
  6
CONTINUOUS
 10
-80.6636
 20
20.747365
 11
-81.203745
 21
20.20722
  0
LINE
  8
型材断面
  6
CONTINUOUS
 10
-81.203745
 20
20.20722
 11
-81.203745
 21
37.814033
  0
LINE
  8
型材断面
  6
CONTINUOUS
 10
-81.203745
 20
20.20722
 11
-28.596933
 21
20.207235
  0
LINE
  8
型材断面
  6
CONTINUOUS
 10
24.00988
 20
-71.792897
 11
-28.596933
 21
-71.792897
  0
LINE
  8
型材断面
  6
CONTINUOUS
 10
23.55988
 20
-72.742897
 11
-28.596933
 21
-72.742897
  0
LINE
  8
型材断面
  6
CONTINUOUS
 10
-80.753745
 20
-72.742897
 11
-80.753745
 21
-72.292897
  0
LINE
  8
型材断面
  6
CONTINUOUS
 62
    47
 10
-81.203745
 20
-72.292897
 11
-81.203745
 21
-71.792897
  0
LINE
  8
型材断面
  6
CONTINUOUS
 62
    47
 10
-81.203745
 20
-71.792897
 11
-79.329288
 21
-71.209613
  0
LINE
  8
型材断面
  6
CONTINUOUS
 10
-81.203745
 20
-71.792897
 11
-28.596933
 21
-71.792897
  0
LINE
  8
型材断面
  6
CONTINUOUS
 10
-80.753745
 20
-72.742897
 11
-28.596933
 21
-72.742897
  0
LINE
  8
型材断面
  6
DOT
 10
-44.085822
 20
22.814033
 11
-44.085822
 21
52.814033
  0
LINE
  8
型材断面
  6
DOT
 10
-46.585822
 20
22.814033
 11
-46.585822
 21
52.814033
  0
LINE
  8
型材断面
  6
DASHDOT
 10
-45.335822
 20
22.814033
 11
-45.335822
 21
52.814033
  0
LINE
  8
型材断面
  6
DOT
 10
-13.108043
 20
22.814033
 11
-13.108043
 21
52.814033
  0
LINE
  8
型材断面
  6
DOT
 10
-10.608043
 20
22.814033
 11
-10.608043
 21
52.814033
  0
LINE
  8
型材断面
  6
DASHDOT
 10
-11.858043
 20
22.814033
 11
-11.858043
 21
52.814033
  0
LINE
  8
ガラス
  6
CONTINUOUS
 10
142.328765
 20
-87.823622
 11
142.328765
 21
-58.49029
  0
LINE
  8
ガラス
  6
CONTINUOUS
 10
109.952097
 20
-87.823622
 11
109.952097
 21
-58.49029
  0
LINE
  8
ガラス
  6
CONTINUOUS
 10
142.328765
 20
-58.49029
 11
109.952097
 21
-58.49029
  0
LINE
  8
ガラス
  6
CONTINUOUS
 10
142.328765
 20
-87.823622
 11
109.952097
 21
-87.823622
  0
TEXT
  7
TextStyle03
  8
文字
  6
CONTINUOUS
 10
-129.675
 20
94.925
  1
は排水穴位置を示す
 40
3.0
 72
     5
 11
-99.675
 21
94.925
  0
TEXT
  7
TextStyle03
  8
文字
  6
CONTINUOUS
 10
124.05
 20
-81.275
  1
網入り6.8t
 40
3.0
 72
     5
 11
140.7375
 21
-81.275
  0
TEXT
  7
TextStyle03
  8
文字
  6
CONTINUOUS
 10
130.725
 20
-85.95
  1
×３枚
 40
3.0
 72
     5
 11
140.475
 21
-85.95
  0
TEXT
  7
TextStyle03
  8
文字
  6
CONTINUOUS
 10
-99.575
 20
16.275
  1
アンカーピッチ
 40
3.0
 50
90.0
 72
     5
 11
-99.575
 21
39.525
  0
TEXT
  7
TextStyle03
  8
文字
  6
CONTINUOUS
 10
-68.65
 20
90.2
  1
アンカーピッチ
 40
3.0
 72
     5
 11
-45.4
 21
90.2
  0
TEXT
  7
TextStyle03
  8
文字
  6
CONTINUOUS
 10
-133.4
 20
88.875
  1
アンカー数量　１２ヶ所
 40
3.0
 72
     5
 11
-96.65
 21
88.875
  0
TEXT
  7
TextStyle03
  8
文字
  6
CONTINUOUS
 10
78.1
 20
125.25
  1
シリーズ：ＳＴＤＫＬ
 40
5.0
 72
     5
 11
133.725
 21
125.25
  0
TEXT
  7
TextStyle03
  8
文字
  6
CONTINUOUS
 10
78.1
 20
119.625
  1
　　　　　（固定）900×3000タイプ
 40
5.0
 72
     5
 11
170.2875
 21
119.625
  0
TEXT
  7
TextStyle03
  8
文字
  6
CONTINUOUS
 10
78.1
 20
114.0
  1
図面名　：外観姿図
 40
5.0
 72
     5
 11
128.1
 21
114.0
  0
TEXT
  7
TextStyle03
  8
文字
  6
CONTINUOUS
 10
78.1
 20
108.375
  1
　　　　　　
 40
5.0
 72
     5
 11
111.225
 21
108.375
  0
TEXT
  7
TextStyle03
  8
文字
  6
CONTINUOUS
 10
77.725
 20
103.85
  1
ＮＳコード：ＮＳＫＳＬ
 40
5.0
 72
     5
 11
138.975
 21
103.85
  0
INSERT
  2
*DIM_0002
  8
寸法
  6
CONTINUOUS
 10
0.0
 20
0.0
  0
INSERT
  2
*DIM_0003
  8
寸法
  6
CONTINUOUS
 10
0.0
 20
0.0
  0
INSERT
  2
*DIM_0004
  8
寸法
  6
CONTINUOUS
 10
0.0
 20
0.0
  0
INSERT
  2
*DIM_0005
  8
寸法
  6
CONTINUOUS
 10
0.0
 20
0.0
  0
INSERT
  2
*DIM_0006
  8
寸法
  6
CONTINUOUS
 10
0.0
 20
0.0
  0
INSERT
  2
*DIM_0007
  8
寸法
  6
CONTINUOUS
 10
0.0
 20
0.0
  0
INSERT
  2
*DIM_0008
  8
寸法
  6
CONTINUOUS
 10
0.0
 20
0.0
  0
INSERT
  2
*DIM_0009
  8
寸法
  6
CONTINUOUS
 10
0.0
 20
0.0
  0
INSERT
  2
*DIM_0010
  8
寸法
  6
CONTINUOUS
 10
0.0
 20
0.0
  0
INSERT
  2
*DIM_0011
  8
寸法
  6
CONTINUOUS
 10
0.0
 20
0.0
  0
INSERT
  2
*DIM_0012
  8
寸法
  6
CONTINUOUS
 10
0.0
 20
0.0
  0
INSERT
  2
*DIM_0014
  8
寸法
  6
CONTINUOUS
 10
0.0
 20
0.0
  0
INSERT
  2
*DIM_0015
  8
寸法
  6
CONTINUOUS
 10
0.0
 20
0.0
  0
INSERT
  2
*DIM_0016
  8
寸法
  6
CONTINUOUS
 10
0.0
 20
0.0
  0
INSERT
  2
*DIM_0017
  8
寸法
  6
CONTINUOUS
 10
0.0
 20
0.0
  0
INSERT
  2
*DIM_0018
  8
寸法
  6
CONTINUOUS
 10
0.0
 20
0.0
  0
INSERT
  2
*DIM_0019
  8
寸法
  6
CONTINUOUS
 10
0.0
 20
0.0
  0
LINE
  8
別途部材
  6
CONTINUOUS
 10
23.469735
 20
20.747365
 11
23.069735
 21
21.147365
  0
LINE
  8
別途部材
  6
CONTINUOUS
 10
21.403067
 20
22.814033
 11
13.343813
 21
30.87329
  0
LINE
  8
別途部材
  6
CONTINUOUS
 10
23.069735
 20
21.147365
 11
23.069735
 21
37.814033
  0
LINE
  8
別途部材
  6
CONTINUOUS
 10
23.469735
 20
20.747365
 11
23.469735
 21
37.814033
  0
LINE
  8
別途部材
  6
CONTINUOUS
 10
23.469735
 20
54.8807
 11
23.069735
 21
54.4807
  0
LINE
  8
別途部材
  6
CONTINUOUS
 10
21.403067
 20
52.814033
 11
13.343813
 21
44.754775
  0
LINE
  8
別途部材
  6
CONTINUOUS
 10
23.069735
 20
54.4807
 11
23.069735
 21
37.814033
  0
LINE
  8
別途部材
  6
CONTINUOUS
 10
23.469735
 20
54.8807
 11
23.469735
 21
37.814033
  0
LINE
  8
別途部材
  6
CONTINUOUS
 10
23.069735
 20
54.4807
 11
-28.596933
 21
54.4807
  0
LINE
  8
別途部材
  6
CONTINUOUS
 10
23.469735
 20
54.8807
 11
-28.596933
 21
54.8807
  0
LINE
  8
別途部材
  6
CONTINUOUS
 10
23.069735
 20
21.147365
 11
-28.596933
 21
21.147365
  0
LINE
  8
別途部材
  6
CONTINUOUS
 10
23.469735
 20
20.747365
 11
-28.596933
 21
20.747365
  0
LINE
  8
別途部材
  6
CONTINUOUS
 10
-80.6636
 20
20.747365
 11
-80.2636
 21
21.147365
  0
LINE
  8
別途部材
  6
CONTINUOUS
 10
-78.596933
 20
22.814033
 11
-70.537677
 21
30.87329
  0
LINE
  8
別途部材
  6
CONTINUOUS
 10
-80.2636
 20
21.147365
 11
-80.2636
 21
37.814033
  0
LINE
  8
別途部材
  6
CONTINUOUS
 10
-80.6636
 20
20.747365
 11
-80.6636
 21
37.814033
  0
LINE
  8
別途部材
  6
CONTINUOUS
 10
-80.6636
 20
54.8807
 11
-80.2636
 21
54.4807
  0
LINE
  8
別途部材
  6
CONTINUOUS
 10
-78.596933
 20
52.814033
 11
-70.537677
 21
44.754775
  0
LINE
  8
別途部材
  6
CONTINUOUS
 10
-80.2636
 20
54.4807
 11
-80.2636
 21
37.814033
  0
LINE
  8
別途部材
  6
CONTINUOUS
 10
-80.6636
 20
54.8807
 11
-80.6636
 21
37.814033
  0
LINE
  8
別途部材
  6
CONTINUOUS
 10
-80.2636
 20
54.4807
 11
-28.596933
 21
54.4807
  0
LINE
  8
別途部材
  6
CONTINUOUS
 10
-80.6636
 20
54.8807
 11
-28.596933
 21
54.8807
  0
LINE
  8
別途部材
  6
CONTINUOUS
 10
-80.2636
 20
21.147365
 11
-28.596933
 21
21.147365
  0
LINE
  8
別途部材
  6
CONTINUOUS
 10
-80.6636
 20
20.747365
 11
-28.596933
 21
20.747365
  0
LINE
  8
別途部材
  6
CONTINUOUS
 62
    96
 10
110.936333
 20
21.147365
 11
111.936333
 21
20.747365
  0
LINE
  8
別途部材
  6
CONTINUOUS
 62
    96
 10
110.936333
 20
21.147365
 11
110.936333
 21
37.814033
  0
LINE
  8
別途部材
  6
CONTINUOUS
 10
111.936333
 20
20.747365
 11
111.936333
 21
37.814033
  0
LINE
  8
別途部材
  6
CONTINUOUS
 62
    96
 10
110.936333
 20
54.4807
 11
111.936333
 21
54.8807
  0
LINE
  8
別途部材
  6
CONTINUOUS
 62
    96
 10
110.936333
 20
54.4807
 11
110.936333
 21
37.814033
  0
LINE
  8
別途部材
  6
CONTINUOUS
 10
111.936333
 20
54.8807
 11
111.936333
 21
37.814033
  0
ARC
  8
別途部材
  6
CONTINUOUS
 10
120.269665
 20
37.814033
 40
17.666667
 50
121.890796
 51
238.109204
  0
INSERT
  2
*GRP_0013
  8
別途部材
  6
CONTINUOUS
 10
0.0
 20
0.0
  0
INSERT
  2
*GRP_0020
  8
別途部材
  6
DOT
 10
0.0
 20
0.0
  0
INSERT
  2
*GRP_0021
  8
別途部材
  6
DOT
 10
0.0
 20
0.0
  0
INSERT
  2
*GRP_0022
  8
別途部材
  6
DOT
 10
0.0
 20
0.0
  0
INSERT
  2
*GRP_0023
  8
別途部材
  6
DOT
 10
0.0
 20
0.0
  0
LINE
  8
St
  6
CONTINUOUS
 62
    47
 10
113.019617
 20
20.20722
 11
113.019617
 21
37.814033
  0
LINE
  8
St
  6
CONTINUOUS
 62
    47
 10
113.019617
 20
55.420845
 11
113.019617
 21
37.814033
  0
LINE
  8
St
  6
CONTINUOUS
 62
    47
 10
24.00988
 20
-72.292897
 11
-28.596933
 21
-72.292897
  0
LINE
  8
St
  6
CONTINUOUS
 62
    47
 10
-81.203745
 20
-72.292897
 11
-28.596933
 21
-72.292897
  0
ENDSEC
  0
EOF
