  0
SECTION
  2
HEADER
  9
$EXTMIN
 10
-210.0
 20
-148.5
  9
$EXTMAX
 10
210.0
 20
148.5
  9
$PDMODE
 70
    32
  9
$PDSIZE
 40
1.5
  9
$LTSCALE
 40
10.0
  0
ENDSEC
  0
SECTION
  2
TABLES
  0
TABLE
  2
LTYPE
 70
    15
  0
LTYPE
  2
CONTINUOUS
 70
    64
  3
実線
 72
    65
 73
     0
 40
0.0
  0
LTYPE
  2
DASHED
 70
    64
  3
破線A
 72
    65
 73
     2
 40
0.6
 49
0.4
 49
-0.2
  0
LTYPE
  2
DASHEDX2
 70
    64
  3
破線B
 72
    65
 73
     2
 40
1.3
 49
0.9
 49
-0.4
  0
LTYPE
  2
DASHDOT
 70
    64
  3
１点鎖線A
 72
    65
 73
     4
 40
0.5375
 49
0.375
 49
-0.05
 49
0.0625
 49
-0.05
  0
LTYPE
  2
DASHDOTX2
 70
    64
  3
１点鎖線B
 72
    65
 73
     4
 40
1.075
 49
0.75
 49
-0.1
 49
0.125
 49
-0.1
  0
LTYPE
  2
DIVIDE2
 70
    64
  3
２点鎖線A
 72
    65
 73
     6
 40
0.5125
 49
0.3
 49
-0.0375
 49
0.05
 49
-0.0375
 49
0.05
 49
-0.0375
  0
LTYPE
  2
DIVIDE
 70
    64
  3
２点鎖線B
 72
    65
 73
     6
 40
1.05
 49
0.55
 49
-0.1
 49
0.1
 49
-0.1
 49
0.1
 49
-0.1
  0
LTYPE
  2
DOT
 70
    64
  3
点線A
 72
    65
 73
     2
 40
0.1125
 49
0.0625
 49
-0.05
  0
LTYPE
  2
DOTX2
 70
    64
  3
点線B
 72
    65
 73
     2
 40
0.275
 49
0.15
 49
-0.125
  0
LTYPE
  2
CONTINUOUS
 70
    64
  3
実線
 72
    65
 73
     0
 40
0.0
  0
LTYPE
  2
CONTINUOUS
 70
    64
  3
実線
 72
    65
 73
     0
 40
0.0
  0
LTYPE
  2
CONTINUOUS
 70
    64
  3
実線
 72
    65
 73
     0
 40
0.0
  0
LTYPE
  2
CONTINUOUS
 70
    64
  3
実線
 72
    65
 73
     0
 40
0.0
  0
LTYPE
  2
CONTINUOUS
 70
    64
  3
実線
 72
    65
 73
     0
 40
0.0
  0
LTYPE
  2
CONTINUOUS
 70
    64
  3
実線
 72
    65
 73
     0
 40
0.0
  0
ENDTAB
  0
TABLE
  2
LAYER
 70
    34
  0
LAYER
  2
通り芯
 70
     0
 62
    15
  6
CONTINUOUS
  0
LAYER
  2
補助線
 70
     0
 62
    16
  6
DOT
  0
LAYER
  2
躯体
 70
     0
 62
    31
  6
CONTINUOUS
  0
LAYER
  2
型材
 70
     0
 62
    32
  6
CONTINUOUS
  0
LAYER
  2
型材断面
 70
     0
 62
    47
  6
CONTINUOUS
  0
LAYER
  2
ガラス
 70
     0
 62
    48
  6
CONTINUOUS
  0
LAYER
  2
ゴム等
 70
     0
 62
    63
  6
CONTINUOUS
  0
LAYER
  2
ボルト／ビス
 70
     0
 62
    64
  6
CONTINUOUS
  0
LAYER
  2
文字
 70
     0
 62
    79
  6
CONTINUOUS
  0
LAYER
  2
寸法
 70
     0
 62
    80
  6
CONTINUOUS
  0
LAYER
  2
ﾊｯﾁﾝｸﾞ
 70
     0
 62
    95
  6
CONTINUOUS
  0
LAYER
  2
別途部材
 70
     0
 62
    96
  6
CONTINUOUS
  0
LAYER
  2
曲げ物
 70
     0
 62
   111
  6
CONTINUOUS
  0
LAYER
  2
鉄骨等
 70
     0
 62
   112
  6
CONTINUOUS
  0
LAYER
  2
St
 70
     0
 62
   127
  6
CONTINUOUS
  0
LAYER
  2
その他部品等
 70
     0
 62
   128
  6
CONTINUOUS
  0
LAYER
  2
ｶﾞｽｹｯﾄ
 70
     0
 62
   143
  6
CONTINUOUS
  0
LAYER
  2
ｽｹｯﾁ
 70
     0
 62
    14
  6
CONTINUOUS
  0
LAYER
  2
0
 70
     0
 62
    17
  6
CONTINUOUS
  0
LAYER
  2
1
 70
     0
 62
    30
  6
CONTINUOUS
  0
LAYER
  2
4
 70
     0
 62
    33
  6
CONTINUOUS
  0
LAYER
  2
ﾚｲﾔ3
 70
     0
 62
    46
  6
CONTINUOUS
  0
LAYER
  2
外形線
 70
     0
 62
    49
  6
CONTINUOUS
  0
LAYER
  2
部品
 70
     0
 62
    14
  6
CONTINUOUS
  0
LAYER
  2
サッシ芯
 70
     0
 62
    17
  6
DASHDOTX2
  0
LAYER
  2
寸法線
 70
     0
 62
    62
  6
CONTINUOUS
  0
LAYER
  2
姿図外形線
 70
     0
 62
    65
  6
CONTINUOUS
  0
LAYER
  2
姿補助線
 70
     0
 62
    30
  6
CONTINUOUS
  0
LAYER
  2
透視線
 70
     0
 62
    78
  6
DOT
  0
LAYER
  2
用紙
 70
     0
 62
    81
  6
CONTINUOUS
  0
LAYER
  2
実線図枠
 70
     0
 62
    94
  6
CONTINUOUS
  0
LAYER
  2
補助図枠
 70
     0
 62
    97
  6
CONTINUOUS
  0
LAYER
  2
建具記号
 70
     0
 62
   110
  6
CONTINUOUS
  0
LAYER
  2
補助文字
 70
     0
 62
   113
  6
CONTINUOUS
  0
ENDTAB
  0
TABLE
  2
STYLE
 70
    10
  0
STYLE
  2
STANDARD
 70
     0
 40
1.0
 41
1.0
 42
1.0
 50
0.0
 71
     0
  3
TXT
  4
BIGFONT
  0
STYLE
  2
TATE
 70
     4
 40
1.0
 41
1.0
 42
1.0
 50
0.0
 71
     0
  3
TXT
  4
BIGFONT
  0
STYLE
  2
TextStyle03
 70
     0
 40
1.0
 41
1.0
 42
1.0
 50
0.0
 71
     0
  3
MONOTXT
  4
BIGFONT
  0
STYLE
  2
TextStyle04
 70
     0
 40
1.0
 41
1.0
 42
1.0
 50
0.0
 71
     0
  3
MONOTXT
  4
BIGFONT
  0
STYLE
  2
TextStyle05
 70
     0
 40
1.0
 41
1.0
 42
1.0
 50
0.0
 71
     0
  3
MONOTXT
  4
BIGFONT
  0
STYLE
  2
TextStyle06
 70
     0
 40
1.0
 41
1.0
 42
1.0
 50
0.0
 71
     0
  3
MONOTXT
  4
BIGFONT
  0
STYLE
  2
TextStyle07
 70
     0
 40
1.0
 41
1.0
 42
1.0
 50
0.0
 71
     0
  3
MONOTXT
  4
BIGFONT
  0
STYLE
  2
TextStyle08
 70
     0
 40
1.0
 41
1.0
 42
1.0
 50
0.0
 71
     0
  3
MONOTXT
  4
BIGFONT
  0
STYLE
  2
TextStyle09
 70
     0
 40
1.0
 41
1.0
 42
1.0
 50
0.0
 71
     0
  3
MONOTXT
  4
BIGFONT
  0
STYLE
  2
TextStyle10
 70
     0
 40
1.0
 41
1.0
 42
1.0
 50
0.0
 71
     0
  3
MONOTXT
  4
BIGFONT
  0
ENDTAB
  0
ENDSEC
  0
SECTION
  2
BLOCKS
  0
BLOCK
  2
*GRP_0001
 70
    65
 10
0.0
 20
0.0
  0
LINE
  8
型材断面
  6
CONTINUOUS
 10
195.0
 20
133.5
 11
195.0
 21
-133.5
  0
LINE
  8
型材断面
  6
CONTINUOUS
 10
195.0
 20
-133.5
 11
-185.0
 21
-133.5
  0
LINE
  8
型材断面
  6
CONTINUOUS
 10
-185.0
 20
-133.5
 11
-185.0
 21
133.5
  0
LINE
  8
型材断面
  6
CONTINUOUS
 10
195.0
 20
133.5
 11
-185.0
 21
133.5
  0
LINE
  8
型材断面
  6
CONTINUOUS
 10
145.0
 20
-133.5
 11
145.0
 21
-118.5
  0
LINE
  8
型材断面
  6
CONTINUOUS
 10
195.0
 20
-118.5
 11
145.0
 21
-118.5
  0
ENDBLK
  0
BLOCK
  2
*DIM_0002
 70
    65
 10
0.0
 20
0.0
  0
LINE
  8
寸法
  6
BYBLOCK
 62
     0
 10
68.48755
 20
-64.87628
 11
93.4572
 21
-64.87628
  0
LINE
  8
寸法
  6
BYBLOCK
 62
     0
 10
93.4572
 20
-70.209613
 11
93.4572
 21
-64.87628
  0
POINT
  8
寸法
 62
     0
 10
93.4572
 20
-70.209613
  0
POINT
  8
寸法
 62
     0
 10
93.4572
 20
-64.87628
  0
TEXT
  7
TextStyle03
  8
寸法
  6
CONTINUOUS
 62
     0
 10
93.05
 20
-69.9875
  1
160
 40
3.0
 50
90.0
 72
     5
 11
93.05
 21
-65.1125
  0
ENDBLK
  0
BLOCK
  2
*DIM_0003
 70
    65
 10
0.0
 20
0.0
  0
LINE
  8
寸法
  6
BYBLOCK
 62
     0
 10
-122.51245
 20
-13.511205
 11
-122.51245
 21
-13.121378
  0
LINE
  8
寸法
  6
BYBLOCK
 62
     0
 10
77.48755
 20
-13.121378
 11
-122.51245
 21
-13.121378
  0
POINT
  8
寸法
 62
     0
 10
77.48755
 20
-13.121378
  0
POINT
  8
寸法
 62
     0
 10
-122.51245
 20
-13.121378
  0
TEXT
  7
TextStyle03
  8
寸法
  6
CONTINUOUS
 62
     0
 10
-34.26875
 20
-12.75
  1
呼称寸法　6000
 40
3.0
 72
     5
 11
-10.83125
 21
-12.75
  0
ENDBLK
  0
BLOCK
  2
*DIM_0004
 70
    65
 10
0.0
 20
0.0
  0
LINE
  8
寸法
  6
BYBLOCK
 62
     0
 10
-105.845783
 20
19.183902
 11
-105.845783
 21
13.963537
  0
LINE
  8
寸法
  6
BYBLOCK
 62
     0
 10
-22.51245
 20
19.183905
 11
-22.51245
 21
13.963537
  0
LINE
  8
寸法
  6
BYBLOCK
 62
     0
 10
-105.845783
 20
13.963537
 11
-22.51245
 21
13.963537
  0
POINT
  8
寸法
 62
     0
 10
-105.845783
 20
13.963537
  0
POINT
  8
寸法
 62
     0
 10
-22.51245
 20
13.963537
  0
TEXT
  7
TextStyle03
  8
寸法
  6
CONTINUOUS
 62
     0
 10
-67.48125
 20
14.325
  1
2500
 40
3.0
 72
     5
 11
-60.91875
 21
14.325
  0
ENDBLK
  0
BLOCK
  2
*DIM_0005
 70
    65
 10
0.0
 20
0.0
  0
LINE
  8
寸法
  6
BYBLOCK
 62
     0
 10
60.820882
 20
19.183902
 11
60.820882
 21
13.963537
  0
LINE
  8
寸法
  6
BYBLOCK
 62
     0
 10
-22.51245
 20
13.963537
 11
60.820882
 21
13.963537
  0
POINT
  8
寸法
 62
     0
 10
60.820882
 20
13.963537
  0
TEXT
  7
TextStyle03
  8
寸法
  6
CONTINUOUS
 62
     0
 10
15.86875
 20
14.325
  1
2500
 40
3.0
 72
     5
 11
22.43125
 21
14.325
  0
ENDBLK
  0
BLOCK
  2
*DIM_0006
 70
    65
 10
0.0
 20
0.0
  0
LINE
  8
寸法
  6
BYBLOCK
 62
     0
 10
80.154218
 20
-70.209613
 11
93.4572
 21
-70.209613
  0
LINE
  8
寸法
  6
BYBLOCK
 62
     0
 10
81.094362
 20
-72.292897
 11
93.4572
 21
-72.292897
  0
LINE
  8
寸法
  6
BYBLOCK
 62
     0
 10
93.4572
 20
-70.209613
 11
93.4572
 21
-72.292897
  0
POINT
  8
寸法
 62
     0
 10
93.4572
 20
-70.209613
  0
POINT
  8
寸法
 62
     0
 10
93.4572
 20
-72.292897
  0
TEXT
  7
TextStyle03
  8
寸法
  6
CONTINUOUS
 62
     0
 10
93.05
 20
-81.30625
  1
62.5
 40
3.0
 50
90.0
 72
     5
 11
93.05
 21
-74.74375
  0
ENDBLK
  0
BLOCK
  2
*DIM_0007
 70
    65
 10
0.0
 20
0.0
  0
LINE
  8
寸法
  6
BYBLOCK
 62
     0
 10
80.094362
 20
-70.792897
 11
80.094362
 21
-13.121378
  0
LINE
  8
寸法
  6
BYBLOCK
 62
     0
 10
77.48755
 20
-13.121378
 11
80.094362
 21
-13.121378
  0
POINT
  8
寸法
 62
     0
 10
77.48755
 20
-13.121378
  0
POINT
  8
寸法
 62
     0
 10
80.094362
 20
-13.121378
  0
TEXT
  7
TextStyle03
  8
寸法
  6
CONTINUOUS
 62
     0
 10
82.21875
 20
-12.75
  1
78.2
 40
3.0
 72
     5
 11
88.78125
 21
-12.75
  0
ENDBLK
  0
BLOCK
  2
*DIM_0008
 70
    65
 10
0.0
 20
0.0
  0
LINE
  8
寸法
  6
BYBLOCK
 62
     0
 10
111.5072
 20
22.814033
 11
111.5072
 21
42.814033
  0
POINT
  8
寸法
 62
     0
 10
111.5072
 20
22.814033
  0
POINT
  8
寸法
 62
     0
 10
111.5072
 20
42.814033
  0
TEXT
  7
TextStyle03
  8
寸法
  6
CONTINUOUS
 62
     0
 10
111.1
 20
21.925
  1
呼称寸法　600
 40
3.0
 50
90.0
 72
     5
 11
111.1
 21
43.675
  0
ENDBLK
  0
BLOCK
  2
*DIM_0009
 70
    65
 10
0.0
 20
0.0
  0
LINE
  8
寸法
  6
BYBLOCK
 62
     0
 10
161.687483
 20
33.814033
 11
161.687483
 21
60.666798
  0
LINE
  8
寸法
  6
BYBLOCK
 62
     0
 10
167.020815
 20
60.666798
 11
161.687483
 21
60.666798
  0
POINT
  8
寸法
 62
     0
 10
167.020815
 20
60.666798
  0
POINT
  8
寸法
 62
     0
 10
161.687483
 20
60.666798
  0
TEXT
  7
TextStyle03
  8
寸法
  6
CONTINUOUS
 62
     0
 10
161.8875
 20
61.025
  1
160
 40
3.0
 72
     5
 11
166.7625
 21
61.025
  0
ENDBLK
  0
BLOCK
  2
*DIM_0010
 70
    65
 10
0.0
 20
0.0
  0
LINE
  8
寸法
  6
BYBLOCK
 62
     0
 10
167.020815
 20
45.4807
 11
167.020815
 21
60.666798
  0
LINE
  8
寸法
  6
BYBLOCK
 62
     0
 10
169.1041
 20
46.420845
 11
169.1041
 21
60.666798
  0
LINE
  8
寸法
  6
BYBLOCK
 62
     0
 10
167.020815
 20
60.666798
 11
169.1041
 21
60.666798
  0
POINT
  8
寸法
 62
     0
 10
167.020815
 20
60.666798
  0
POINT
  8
寸法
 62
     0
 10
169.1041
 20
60.666798
  0
TEXT
  7
TextStyle03
  8
寸法
  6
CONTINUOUS
 62
     0
 10
171.49375
 20
61.025
  1
62.5
 40
3.0
 72
     5
 11
178.05625
 21
61.025
  0
ENDBLK
  0
BLOCK
  2
*DIM_0011
 70
    65
 10
0.0
 20
0.0
  0
LINE
  8
寸法
  6
BYBLOCK
 62
     0
 10
167.6041
 20
45.420845
 11
111.5072
 21
45.420845
  0
LINE
  8
寸法
  6
BYBLOCK
 62
     0
 10
111.5072
 20
42.814033
 11
111.5072
 21
45.420845
  0
POINT
  8
寸法
 62
     0
 10
111.5072
 20
42.814033
  0
POINT
  8
寸法
 62
     0
 10
111.5072
 20
45.420845
  0
TEXT
  7
TextStyle03
  8
寸法
  6
CONTINUOUS
 62
     0
 10
111.1
 20
47.56875
  1
78.2
 40
3.0
 50
90.0
 72
     5
 11
111.1
 21
54.13125
  0
ENDBLK
  0
BLOCK
  2
*DIM_0012
 70
    65
 10
0.0
 20
0.0
  0
LINE
  8
寸法
  6
BYBLOCK
 62
     0
 10
167.6041
 20
20.20722
 11
111.5072
 21
20.20722
  0
LINE
  8
寸法
  6
BYBLOCK
 62
     0
 10
111.5072
 20
22.814033
 11
111.5072
 21
20.20722
  0
POINT
  8
寸法
 62
     0
 10
111.5072
 20
22.814033
  0
POINT
  8
寸法
 62
     0
 10
111.5072
 20
20.20722
  0
TEXT
  7
TextStyle03
  8
寸法
  6
CONTINUOUS
 62
     0
 10
111.1
 20
11.46875
  1
78.2
 40
3.0
 50
90.0
 72
     5
 11
111.1
 21
18.03125
  0
ENDBLK
  0
BLOCK
  2
*DIM_0013
 70
    65
 10
0.0
 20
0.0
  0
LINE
  8
寸法
  6
BYBLOCK
 62
     0
 10
-125.119262
 20
-70.792897
 11
-125.119262
 21
-13.121378
  0
LINE
  8
寸法
  6
BYBLOCK
 62
     0
 10
-122.51245
 20
-13.121378
 11
-125.119262
 21
-13.121378
  0
POINT
  8
寸法
 62
     0
 10
-122.51245
 20
-13.121378
  0
POINT
  8
寸法
 62
     0
 10
-125.119262
 20
-13.121378
  0
TEXT
  7
TextStyle03
  8
寸法
  6
CONTINUOUS
 62
     0
 10
-133.85625
 20
-12.75
  1
78.2
 40
3.0
 72
     5
 11
-127.29375
 21
-12.75
  0
ENDBLK
  0
BLOCK
  2
*GRP_0014
 70
    65
 10
0.0
 20
0.0
  0
LINE
  8
別途部材
  6
CONTINUOUS
 62
    96
 10
-124.179115
 20
-70.209613
 11
-124.579115
 21
-71.209613
  0
LINE
  8
別途部材
  6
CONTINUOUS
 62
    96
 10
-124.179115
 20
-70.209613
 11
-22.51245
 21
-70.209613
  0
LINE
  8
別途部材
  6
CONTINUOUS
 10
-124.579115
 20
-71.209613
 11
-22.51245
 21
-71.209613
  0
ARC
  8
別途部材
  6
CONTINUOUS
 10
-112.512449
 20
-76.917952
 40
12.041668
 50
90.0
 51
146.144967
  0
LINE
  8
別途部材
  6
CONTINUOUS
 10
-23.01245
 20
-63.87628
 11
-24.01245
 21
-64.87628
  0
LINE
  8
別途部材
  6
CONTINUOUS
 10
-25.01245
 20
-64.87628
 11
-26.01245
 21
-63.87628
  0
LINE
  8
別途部材
  6
CONTINUOUS
 10
-27.01245
 20
-63.87628
 11
-28.01245
 21
-64.87628
  0
LINE
  8
別途部材
  6
CONTINUOUS
 10
-26.01245
 20
-63.87628
 11
-27.01245
 21
-63.87628
  0
LINE
  8
別途部材
  6
CONTINUOUS
 10
-23.01245
 20
-63.87628
 11
-22.51245
 21
-63.87628
  0
LINE
  8
別途部材
  6
CONTINUOUS
 10
-29.01245
 20
-64.87628
 11
-30.01245
 21
-63.87628
  0
LINE
  8
別途部材
  6
CONTINUOUS
 10
-31.01245
 20
-63.87628
 11
-32.01245
 21
-64.87628
  0
LINE
  8
別途部材
  6
CONTINUOUS
 10
-30.01245
 20
-63.87628
 11
-31.01245
 21
-63.87628
  0
LINE
  8
別途部材
  6
CONTINUOUS
 10
-33.01245
 20
-64.87628
 11
-34.01245
 21
-63.87628
  0
LINE
  8
別途部材
  6
CONTINUOUS
 10
-35.01245
 20
-63.87628
 11
-36.01245
 21
-64.87628
  0
LINE
  8
別途部材
  6
CONTINUOUS
 10
-34.01245
 20
-63.87628
 11
-35.01245
 21
-63.87628
  0
LINE
  8
別途部材
  6
CONTINUOUS
 10
-37.01245
 20
-64.87628
 11
-38.01245
 21
-63.87628
  0
LINE
  8
別途部材
  6
CONTINUOUS
 10
-39.01245
 20
-63.87628
 11
-40.01245
 21
-64.87628
  0
LINE
  8
別途部材
  6
CONTINUOUS
 10
-38.01245
 20
-63.87628
 11
-39.01245
 21
-63.87628
  0
LINE
  8
別途部材
  6
CONTINUOUS
 10
-41.01245
 20
-64.87628
 11
-42.01245
 21
-63.87628
  0
LINE
  8
別途部材
  6
CONTINUOUS
 10
-43.01245
 20
-63.87628
 11
-44.01245
 21
-64.87628
  0
LINE
  8
別途部材
  6
CONTINUOUS
 10
-42.01245
 20
-63.87628
 11
-43.01245
 21
-63.87628
  0
LINE
  8
別途部材
  6
CONTINUOUS
 10
-45.01245
 20
-64.87628
 11
-46.01245
 21
-63.87628
  0
LINE
  8
別途部材
  6
CONTINUOUS
 10
-47.01245
 20
-63.87628
 11
-48.01245
 21
-64.87628
  0
LINE
  8
別途部材
  6
CONTINUOUS
 10
-46.01245
 20
-63.87628
 11
-47.01245
 21
-63.87628
  0
LINE
  8
別途部材
  6
CONTINUOUS
 10
-49.01245
 20
-64.87628
 11
-50.01245
 21
-63.87628
  0
LINE
  8
別途部材
  6
CONTINUOUS
 10
-51.01245
 20
-63.87628
 11
-52.01245
 21
-64.87628
  0
LINE
  8
別途部材
  6
CONTINUOUS
 10
-50.01245
 20
-63.87628
 11
-51.01245
 21
-63.87628
  0
LINE
  8
別途部材
  6
CONTINUOUS
 10
-53.01245
 20
-64.87628
 11
-54.01245
 21
-63.87628
  0
LINE
  8
別途部材
  6
CONTINUOUS
 10
-55.01245
 20
-63.87628
 11
-56.01245
 21
-64.87628
  0
LINE
  8
別途部材
  6
CONTINUOUS
 10
-54.01245
 20
-63.87628
 11
-55.01245
 21
-63.87628
  0
LINE
  8
別途部材
  6
CONTINUOUS
 10
-57.01245
 20
-64.87628
 11
-58.01245
 21
-63.87628
  0
LINE
  8
別途部材
  6
CONTINUOUS
 10
-59.01245
 20
-63.87628
 11
-60.01245
 21
-64.87628
  0
LINE
  8
別途部材
  6
CONTINUOUS
 10
-58.01245
 20
-63.87628
 11
-59.01245
 21
-63.87628
  0
LINE
  8
別途部材
  6
CONTINUOUS
 10
-61.01245
 20
-64.87628
 11
-62.01245
 21
-63.87628
  0
LINE
  8
別途部材
  6
CONTINUOUS
 10
-63.01245
 20
-63.87628
 11
-64.01245
 21
-64.87628
  0
LINE
  8
別途部材
  6
CONTINUOUS
 10
-62.01245
 20
-63.87628
 11
-63.01245
 21
-63.87628
  0
LINE
  8
別途部材
  6
CONTINUOUS
 10
-65.01245
 20
-64.87628
 11
-66.01245
 21
-63.87628
  0
LINE
  8
別途部材
  6
CONTINUOUS
 10
-67.01245
 20
-63.87628
 11
-68.01245
 21
-64.87628
  0
LINE
  8
別途部材
  6
CONTINUOUS
 10
-66.01245
 20
-63.87628
 11
-67.01245
 21
-63.87628
  0
LINE
  8
別途部材
  6
CONTINUOUS
 10
-64.01245
 20
-64.87628
 11
-65.01245
 21
-64.87628
  0
LINE
  8
別途部材
  6
CONTINUOUS
 10
-60.01245
 20
-64.87628
 11
-61.01245
 21
-64.87628
  0
LINE
  8
別途部材
  6
CONTINUOUS
 10
-56.01245
 20
-64.87628
 11
-57.01245
 21
-64.87628
  0
LINE
  8
別途部材
  6
CONTINUOUS
 10
-52.01245
 20
-64.87628
 11
-53.01245
 21
-64.87628
  0
LINE
  8
別途部材
  6
CONTINUOUS
 10
-48.01245
 20
-64.87628
 11
-49.01245
 21
-64.87628
  0
LINE
  8
別途部材
  6
CONTINUOUS
 10
-44.01245
 20
-64.87628
 11
-45.01245
 21
-64.87628
  0
LINE
  8
別途部材
  6
CONTINUOUS
 10
-40.01245
 20
-64.87628
 11
-41.01245
 21
-64.87628
  0
LINE
  8
別途部材
  6
CONTINUOUS
 10
-36.01245
 20
-64.87628
 11
-37.01245
 21
-64.87628
  0
LINE
  8
別途部材
  6
CONTINUOUS
 10
-32.01245
 20
-64.87628
 11
-33.01245
 21
-64.87628
  0
LINE
  8
別途部材
  6
CONTINUOUS
 10
-28.01245
 20
-64.87628
 11
-29.01245
 21
-64.87628
  0
LINE
  8
別途部材
  6
CONTINUOUS
 10
-25.01245
 20
-64.87628
 11
-24.01245
 21
-64.87628
  0
LINE
  8
別途部材
  6
CONTINUOUS
 10
-69.01245
 20
-64.87628
 11
-70.01245
 21
-63.87628
  0
LINE
  8
別途部材
  6
CONTINUOUS
 10
-71.01245
 20
-63.87628
 11
-72.01245
 21
-64.87628
  0
LINE
  8
別途部材
  6
CONTINUOUS
 10
-70.01245
 20
-63.87628
 11
-71.01245
 21
-63.87628
  0
LINE
  8
別途部材
  6
CONTINUOUS
 10
-73.01245
 20
-64.87628
 11
-74.01245
 21
-63.87628
  0
LINE
  8
別途部材
  6
CONTINUOUS
 10
-75.01245
 20
-63.87628
 11
-76.01245
 21
-64.87628
  0
LINE
  8
別途部材
  6
CONTINUOUS
 10
-74.01245
 20
-63.87628
 11
-75.01245
 21
-63.87628
  0
LINE
  8
別途部材
  6
CONTINUOUS
 10
-77.01245
 20
-64.87628
 11
-78.01245
 21
-63.87628
  0
LINE
  8
別途部材
  6
CONTINUOUS
 10
-79.01245
 20
-63.87628
 11
-80.01245
 21
-64.87628
  0
LINE
  8
別途部材
  6
CONTINUOUS
 10
-78.01245
 20
-63.87628
 11
-79.01245
 21
-63.87628
  0
LINE
  8
別途部材
  6
CONTINUOUS
 10
-81.01245
 20
-64.87628
 11
-82.01245
 21
-63.87628
  0
LINE
  8
別途部材
  6
CONTINUOUS
 10
-83.01245
 20
-63.87628
 11
-84.01245
 21
-64.87628
  0
LINE
  8
別途部材
  6
CONTINUOUS
 10
-82.01245
 20
-63.87628
 11
-83.01245
 21
-63.87628
  0
LINE
  8
別途部材
  6
CONTINUOUS
 10
-85.01245
 20
-64.87628
 11
-86.01245
 21
-63.87628
  0
LINE
  8
別途部材
  6
CONTINUOUS
 10
-87.01245
 20
-63.87628
 11
-88.01245
 21
-64.87628
  0
LINE
  8
別途部材
  6
CONTINUOUS
 10
-86.01245
 20
-63.87628
 11
-87.01245
 21
-63.87628
  0
LINE
  8
別途部材
  6
CONTINUOUS
 10
-89.01245
 20
-64.87628
 11
-90.01245
 21
-63.87628
  0
LINE
  8
別途部材
  6
CONTINUOUS
 10
-91.01245
 20
-63.87628
 11
-92.01245
 21
-64.87628
  0
LINE
  8
別途部材
  6
CONTINUOUS
 10
-90.01245
 20
-63.87628
 11
-91.01245
 21
-63.87628
  0
LINE
  8
別途部材
  6
CONTINUOUS
 10
-93.01245
 20
-64.87628
 11
-94.01245
 21
-63.87628
  0
LINE
  8
別途部材
  6
CONTINUOUS
 10
-95.01245
 20
-63.87628
 11
-96.01245
 21
-64.87628
  0
LINE
  8
別途部材
  6
CONTINUOUS
 10
-94.01245
 20
-63.87628
 11
-95.01245
 21
-63.87628
  0
LINE
  8
別途部材
  6
CONTINUOUS
 10
-97.01245
 20
-64.87628
 11
-98.01245
 21
-63.87628
  0
LINE
  8
別途部材
  6
CONTINUOUS
 10
-99.01245
 20
-63.87628
 11
-100.01245
 21
-64.87628
  0
LINE
  8
別途部材
  6
CONTINUOUS
 10
-98.01245
 20
-63.87628
 11
-99.01245
 21
-63.87628
  0
LINE
  8
別途部材
  6
CONTINUOUS
 10
-96.01245
 20
-64.87628
 11
-97.01245
 21
-64.87628
  0
LINE
  8
別途部材
  6
CONTINUOUS
 10
-92.01245
 20
-64.87628
 11
-93.01245
 21
-64.87628
  0
LINE
  8
別途部材
  6
CONTINUOUS
 10
-88.01245
 20
-64.87628
 11
-89.01245
 21
-64.87628
  0
LINE
  8
別途部材
  6
CONTINUOUS
 10
-84.01245
 20
-64.87628
 11
-85.01245
 21
-64.87628
  0
LINE
  8
別途部材
  6
CONTINUOUS
 10
-80.01245
 20
-64.87628
 11
-81.01245
 21
-64.87628
  0
LINE
  8
別途部材
  6
CONTINUOUS
 10
-76.01245
 20
-64.87628
 11
-77.01245
 21
-64.87628
  0
LINE
  8
別途部材
  6
CONTINUOUS
 10
-72.01245
 20
-64.87628
 11
-73.01245
 21
-64.87628
  0
LINE
  8
別途部材
  6
CONTINUOUS
 10
-68.01245
 20
-64.87628
 11
-69.01245
 21
-64.87628
  0
LINE
  8
別途部材
  6
CONTINUOUS
 10
-101.01245
 20
-64.87628
 11
-102.01245
 21
-63.87628
  0
LINE
  8
別途部材
  6
CONTINUOUS
 10
-103.01245
 20
-63.87628
 11
-104.01245
 21
-64.87628
  0
LINE
  8
別途部材
  6
CONTINUOUS
 10
-102.01245
 20
-63.87628
 11
-103.01245
 21
-63.87628
  0
LINE
  8
別途部材
  6
CONTINUOUS
 10
-100.01245
 20
-64.87628
 11
-101.01245
 21
-64.87628
  0
LINE
  8
別途部材
  6
CONTINUOUS
 10
-105.01245
 20
-64.87628
 11
-106.01245
 21
-63.87628
  0
LINE
  8
別途部材
  6
CONTINUOUS
 10
-107.01245
 20
-63.87628
 11
-108.01245
 21
-64.87628
  0
LINE
  8
別途部材
  6
CONTINUOUS
 10
-106.01245
 20
-63.87628
 11
-107.01245
 21
-63.87628
  0
LINE
  8
別途部材
  6
CONTINUOUS
 10
-104.01245
 20
-64.87628
 11
-105.01245
 21
-64.87628
  0
LINE
  8
別途部材
  6
CONTINUOUS
 10
-108.01245
 20
-64.87628
 11
-108.01245
 21
-70.209613
  0
LINE
  8
別途部材
  6
CONTINUOUS
 10
-107.01245
 20
-63.87628
 11
-107.01245
 21
-70.209613
  0
LINE
  8
別途部材
  6
CONTINUOUS
 10
-106.01245
 20
-63.87628
 11
-106.01245
 21
-70.209613
  0
LINE
  8
別途部材
  6
CONTINUOUS
 10
-104.01245
 20
-64.87628
 11
-104.01245
 21
-70.209613
  0
LINE
  8
別途部材
  6
CONTINUOUS
 10
-105.01245
 20
-64.87628
 11
-105.01245
 21
-70.209613
  0
LINE
  8
別途部材
  6
CONTINUOUS
 10
-103.01245
 20
-63.87628
 11
-103.01245
 21
-70.209613
  0
LINE
  8
別途部材
  6
CONTINUOUS
 10
-102.01245
 20
-63.87628
 11
-102.01245
 21
-70.209613
  0
LINE
  8
別途部材
  6
CONTINUOUS
 10
-100.01245
 20
-64.87628
 11
-100.01245
 21
-70.209613
  0
LINE
  8
別途部材
  6
CONTINUOUS
 10
-98.01245
 20
-63.87628
 11
-98.01245
 21
-70.209613
  0
LINE
  8
別途部材
  6
CONTINUOUS
 10
-97.01245
 20
-64.87628
 11
-97.01245
 21
-70.209613
  0
LINE
  8
別途部材
  6
CONTINUOUS
 10
-99.01245
 20
-63.87628
 11
-99.01245
 21
-70.209613
  0
LINE
  8
別途部材
  6
CONTINUOUS
 10
-101.01245
 20
-64.87628
 11
-101.01245
 21
-70.209613
  0
LINE
  8
別途部材
  6
CONTINUOUS
 10
-96.01245
 20
-64.87628
 11
-96.01245
 21
-70.209613
  0
LINE
  8
別途部材
  6
CONTINUOUS
 10
-95.01245
 20
-63.87628
 11
-95.01245
 21
-70.209613
  0
LINE
  8
別途部材
  6
CONTINUOUS
 10
-93.01245
 20
-64.87628
 11
-93.01245
 21
-70.209613
  0
LINE
  8
別途部材
  6
CONTINUOUS
 10
-94.01245
 20
-63.87628
 11
-94.01245
 21
-70.209613
  0
LINE
  8
別途部材
  6
CONTINUOUS
 10
-91.01245
 20
-63.87628
 11
-91.01245
 21
-70.209613
  0
LINE
  8
別途部材
  6
CONTINUOUS
 10
-92.01245
 20
-64.87628
 11
-92.01245
 21
-70.209613
  0
LINE
  8
別途部材
  6
CONTINUOUS
 10
-90.01245
 20
-63.87628
 11
-90.01245
 21
-70.209613
  0
LINE
  8
別途部材
  6
CONTINUOUS
 10
-89.01245
 20
-64.87628
 11
-89.01245
 21
-70.209613
  0
LINE
  8
別途部材
  6
CONTINUOUS
 10
-87.01245
 20
-63.87628
 11
-87.01245
 21
-70.209613
  0
LINE
  8
別途部材
  6
CONTINUOUS
 10
-88.01245
 20
-64.87628
 11
-88.01245
 21
-70.209613
  0
LINE
  8
別途部材
  6
CONTINUOUS
 10
-85.01245
 20
-64.87628
 11
-85.01245
 21
-70.209613
  0
LINE
  8
別途部材
  6
CONTINUOUS
 10
-86.01245
 20
-63.87628
 11
-86.01245
 21
-70.209613
  0
LINE
  8
別途部材
  6
CONTINUOUS
 10
-84.01245
 20
-64.87628
 11
-84.01245
 21
-70.209613
  0
LINE
  8
別途部材
  6
CONTINUOUS
 10
-82.01245
 20
-63.87628
 11
-82.01245
 21
-70.209613
  0
LINE
  8
別途部材
  6
CONTINUOUS
 10
-83.01245
 20
-63.87628
 11
-83.01245
 21
-70.209613
  0
LINE
  8
別途部材
  6
CONTINUOUS
 10
-81.01245
 20
-64.87628
 11
-81.01245
 21
-70.209613
  0
LINE
  8
別途部材
  6
CONTINUOUS
 10
-80.01245
 20
-64.87628
 11
-80.01245
 21
-70.209613
  0
LINE
  8
別途部材
  6
CONTINUOUS
 10
-79.01245
 20
-63.87628
 11
-79.01245
 21
-70.209613
  0
LINE
  8
別途部材
  6
CONTINUOUS
 10
-78.01245
 20
-63.87628
 11
-78.01245
 21
-70.209613
  0
LINE
  8
別途部材
  6
CONTINUOUS
 10
-75.01245
 20
-63.87628
 11
-75.01245
 21
-70.209613
  0
LINE
  8
別途部材
  6
CONTINUOUS
 10
-73.01245
 20
-64.87628
 11
-73.01245
 21
-70.209613
  0
LINE
  8
別途部材
  6
CONTINUOUS
 10
-74.01245
 20
-63.87628
 11
-74.01245
 21
-70.209613
  0
LINE
  8
別途部材
  6
CONTINUOUS
 10
-76.01245
 20
-64.87628
 11
-76.01245
 21
-70.209613
  0
LINE
  8
別途部材
  6
CONTINUOUS
 10
-77.01245
 20
-64.87628
 11
-77.01245
 21
-70.209613
  0
LINE
  8
別途部材
  6
CONTINUOUS
 10
-72.01245
 20
-64.87628
 11
-72.01245
 21
-70.209613
  0
LINE
  8
別途部材
  6
CONTINUOUS
 10
-70.01245
 20
-63.87628
 11
-70.01245
 21
-70.209613
  0
LINE
  8
別途部材
  6
CONTINUOUS
 10
-71.01245
 20
-63.87628
 11
-71.01245
 21
-70.209613
  0
LINE
  8
別途部材
  6
CONTINUOUS
 10
-69.01245
 20
-64.87628
 11
-69.01245
 21
-70.209613
  0
LINE
  8
別途部材
  6
CONTINUOUS
 10
-67.01245
 20
-63.87628
 11
-67.01245
 21
-70.209613
  0
LINE
  8
別途部材
  6
CONTINUOUS
 10
-68.01245
 20
-64.87628
 11
-68.01245
 21
-70.209613
  0
LINE
  8
別途部材
  6
CONTINUOUS
 10
-66.01245
 20
-63.87628
 11
-66.01245
 21
-70.209613
  0
LINE
  8
別途部材
  6
CONTINUOUS
 10
-65.01245
 20
-64.87628
 11
-65.01245
 21
-70.209613
  0
LINE
  8
別途部材
  6
CONTINUOUS
 10
-63.01245
 20
-63.87628
 11
-63.01245
 21
-70.209613
  0
LINE
  8
別途部材
  6
CONTINUOUS
 10
-64.01245
 20
-64.87628
 11
-64.01245
 21
-70.209613
  0
LINE
  8
別途部材
  6
CONTINUOUS
 10
-60.01245
 20
-64.87628
 11
-60.01245
 21
-70.209613
  0
LINE
  8
別途部材
  6
CONTINUOUS
 10
-61.01245
 20
-64.87628
 11
-61.01245
 21
-70.209613
  0
LINE
  8
別途部材
  6
CONTINUOUS
 10
-62.01245
 20
-63.87628
 11
-62.01245
 21
-70.209613
  0
LINE
  8
別途部材
  6
CONTINUOUS
 10
-59.01245
 20
-63.87628
 11
-59.01245
 21
-70.209613
  0
LINE
  8
別途部材
  6
CONTINUOUS
 10
-58.01245
 20
-63.87628
 11
-58.01245
 21
-70.209613
  0
LINE
  8
別途部材
  6
CONTINUOUS
 10
-57.01245
 20
-64.87628
 11
-57.01245
 21
-70.209613
  0
LINE
  8
別途部材
  6
CONTINUOUS
 10
-55.01245
 20
-63.87628
 11
-55.01245
 21
-70.209613
  0
LINE
  8
別途部材
  6
CONTINUOUS
 10
-51.01245
 20
-63.87628
 11
-51.01245
 21
-70.209613
  0
LINE
  8
別途部材
  6
CONTINUOUS
 10
-52.01245
 20
-64.87628
 11
-52.01245
 21
-70.209613
  0
LINE
  8
別途部材
  6
CONTINUOUS
 10
-53.01245
 20
-64.87628
 11
-53.01245
 21
-70.209613
  0
LINE
  8
別途部材
  6
CONTINUOUS
 10
-54.01245
 20
-63.87628
 11
-54.01245
 21
-70.209613
  0
LINE
  8
別途部材
  6
CONTINUOUS
 10
-56.01245
 20
-64.87628
 11
-56.01245
 21
-70.209613
  0
LINE
  8
別途部材
  6
CONTINUOUS
 10
-49.01245
 20
-64.87628
 11
-49.01245
 21
-70.209613
  0
LINE
  8
別途部材
  6
CONTINUOUS
 10
-50.01245
 20
-63.87628
 11
-50.01245
 21
-70.209613
  0
LINE
  8
別途部材
  6
CONTINUOUS
 10
-48.01245
 20
-64.87628
 11
-48.01245
 21
-70.209613
  0
LINE
  8
別途部材
  6
CONTINUOUS
 10
-47.01245
 20
-63.87628
 11
-47.01245
 21
-70.209613
  0
LINE
  8
別途部材
  6
CONTINUOUS
 10
-43.01245
 20
-63.87628
 11
-43.01245
 21
-70.209613
  0
LINE
  8
別途部材
  6
CONTINUOUS
 10
-42.01245
 20
-63.87628
 11
-42.01245
 21
-70.209613
  0
LINE
  8
別途部材
  6
CONTINUOUS
 10
-44.01245
 20
-64.87628
 11
-44.01245
 21
-70.209613
  0
LINE
  8
別途部材
  6
CONTINUOUS
 10
-45.01245
 20
-64.87628
 11
-45.01245
 21
-70.209613
  0
LINE
  8
別途部材
  6
CONTINUOUS
 10
-46.01245
 20
-63.87628
 11
-46.01245
 21
-70.209613
  0
LINE
  8
別途部材
  6
CONTINUOUS
 10
-41.01245
 20
-64.87628
 11
-41.01245
 21
-70.209613
  0
LINE
  8
別途部材
  6
CONTINUOUS
 10
-39.01245
 20
-63.87628
 11
-39.01245
 21
-70.209613
  0
LINE
  8
別途部材
  6
CONTINUOUS
 10
-38.01245
 20
-63.87628
 11
-38.01245
 21
-70.209613
  0
LINE
  8
別途部材
  6
CONTINUOUS
 10
-37.01245
 20
-64.87628
 11
-37.01245
 21
-70.209613
  0
LINE
  8
別途部材
  6
CONTINUOUS
 10
-36.01245
 20
-64.87628
 11
-36.01245
 21
-70.209613
  0
LINE
  8
別途部材
  6
CONTINUOUS
 10
-35.01245
 20
-63.87628
 11
-35.01245
 21
-70.209613
  0
LINE
  8
別途部材
  6
CONTINUOUS
 10
-40.01245
 20
-64.87628
 11
-40.01245
 21
-70.209613
  0
LINE
  8
別途部材
  6
CONTINUOUS
 10
-34.01245
 20
-63.87628
 11
-34.01245
 21
-70.209613
  0
LINE
  8
別途部材
  6
CONTINUOUS
 10
-33.01245
 20
-64.87628
 11
-33.01245
 21
-70.209613
  0
LINE
  8
別途部材
  6
CONTINUOUS
 10
-32.01245
 20
-64.87628
 11
-32.01245
 21
-70.209613
  0
LINE
  8
別途部材
  6
CONTINUOUS
 10
-30.01245
 20
-63.87628
 11
-30.01245
 21
-70.209613
  0
LINE
  8
別途部材
  6
CONTINUOUS
 10
-28.01245
 20
-64.87628
 11
-28.01245
 21
-70.209613
  0
LINE
  8
別途部材
  6
CONTINUOUS
 10
-27.01245
 20
-63.87628
 11
-27.01245
 21
-70.209613
  0
LINE
  8
別途部材
  6
CONTINUOUS
 10
-25.01245
 20
-64.87628
 11
-25.01245
 21
-70.209613
  0
LINE
  8
別途部材
  6
CONTINUOUS
 10
-24.01245
 20
-64.87628
 11
-24.01245
 21
-70.209613
  0
LINE
  8
別途部材
  6
CONTINUOUS
 10
-23.01245
 20
-63.87628
 11
-23.01245
 21
-70.209613
  0
LINE
  8
別途部材
  6
CONTINUOUS
 10
-26.01245
 20
-63.87628
 11
-26.01245
 21
-70.209613
  0
LINE
  8
別途部材
  6
CONTINUOUS
 10
-29.01245
 20
-64.87628
 11
-29.01245
 21
-70.209613
  0
LINE
  8
別途部材
  6
CONTINUOUS
 10
-31.01245
 20
-63.87628
 11
-31.01245
 21
-70.209613
  0
LINE
  8
別途部材
  6
CONTINUOUS
 10
-109.01245
 20
-64.87628
 11
-110.01245
 21
-63.87628
  0
LINE
  8
別途部材
  6
CONTINUOUS
 10
-111.01245
 20
-63.87628
 11
-112.01245
 21
-64.87628
  0
LINE
  8
別途部材
  6
CONTINUOUS
 10
-110.01245
 20
-63.87628
 11
-111.01245
 21
-63.87628
  0
LINE
  8
別途部材
  6
CONTINUOUS
 10
-108.01245
 20
-64.87628
 11
-109.01245
 21
-64.87628
  0
LINE
  8
別途部材
  6
CONTINUOUS
 10
-112.01245
 20
-64.87628
 11
-112.01245
 21
-70.209613
  0
LINE
  8
別途部材
  6
CONTINUOUS
 10
-111.01245
 20
-63.87628
 11
-111.01245
 21
-70.209613
  0
LINE
  8
別途部材
  6
CONTINUOUS
 10
-110.01245
 20
-63.87628
 11
-110.01245
 21
-70.209613
  0
LINE
  8
別途部材
  6
CONTINUOUS
 10
-109.01245
 20
-64.87628
 11
-109.01245
 21
-70.209613
  0
LINE
  8
別途部材
  6
CONTINUOUS
 10
-112.01245
 20
-64.87628
 11
-112.51245
 21
-64.87628
  0
LINE
  8
別途部材
  6
CONTINUOUS
 62
    96
 10
79.154218
 20
-70.209613
 11
79.554218
 21
-71.209613
  0
LINE
  8
別途部材
  6
CONTINUOUS
 62
    96
 10
79.154218
 20
-70.209613
 11
-22.51245
 21
-70.209613
  0
LINE
  8
別途部材
  6
CONTINUOUS
 10
79.554218
 20
-71.209613
 11
-22.51245
 21
-71.209613
  0
ARC
  8
別途部材
  6
CONTINUOUS
 10
67.487551
 20
-76.917952
 40
12.041668
 50
33.855033
 51
90.0
  0
LINE
  8
別途部材
  6
CONTINUOUS
 10
-22.01245
 20
-63.87628
 11
-21.01245
 21
-64.87628
  0
LINE
  8
別途部材
  6
CONTINUOUS
 10
-20.01245
 20
-64.87628
 11
-19.01245
 21
-63.87628
  0
LINE
  8
別途部材
  6
CONTINUOUS
 10
-18.01245
 20
-63.87628
 11
-17.01245
 21
-64.87628
  0
LINE
  8
別途部材
  6
CONTINUOUS
 10
-19.01245
 20
-63.87628
 11
-18.01245
 21
-63.87628
  0
LINE
  8
別途部材
  6
CONTINUOUS
 10
-22.01245
 20
-63.87628
 11
-22.51245
 21
-63.87628
  0
LINE
  8
別途部材
  6
CONTINUOUS
 10
-16.01245
 20
-64.87628
 11
-15.01245
 21
-63.87628
  0
LINE
  8
別途部材
  6
CONTINUOUS
 10
-14.01245
 20
-63.87628
 11
-13.01245
 21
-64.87628
  0
LINE
  8
別途部材
  6
CONTINUOUS
 10
-15.01245
 20
-63.87628
 11
-14.01245
 21
-63.87628
  0
LINE
  8
別途部材
  6
CONTINUOUS
 10
-12.01245
 20
-64.87628
 11
-11.01245
 21
-63.87628
  0
LINE
  8
別途部材
  6
CONTINUOUS
 10
-10.01245
 20
-63.87628
 11
-9.01245
 21
-64.87628
  0
LINE
  8
別途部材
  6
CONTINUOUS
 10
-11.01245
 20
-63.87628
 11
-10.01245
 21
-63.87628
  0
LINE
  8
別途部材
  6
CONTINUOUS
 10
-8.01245
 20
-64.87628
 11
-7.01245
 21
-63.87628
  0
LINE
  8
別途部材
  6
CONTINUOUS
 10
-6.01245
 20
-63.87628
 11
-5.01245
 21
-64.87628
  0
LINE
  8
別途部材
  6
CONTINUOUS
 10
-7.01245
 20
-63.87628
 11
-6.01245
 21
-63.87628
  0
LINE
  8
別途部材
  6
CONTINUOUS
 10
-4.01245
 20
-64.87628
 11
-3.01245
 21
-63.87628
  0
LINE
  8
別途部材
  6
CONTINUOUS
 10
-2.01245
 20
-63.87628
 11
-1.01245
 21
-64.87628
  0
LINE
  8
別途部材
  6
CONTINUOUS
 10
-3.01245
 20
-63.87628
 11
-2.01245
 21
-63.87628
  0
LINE
  8
別途部材
  6
CONTINUOUS
 10
-0.01245
 20
-64.87628
 11
0.98755
 21
-63.87628
  0
LINE
  8
別途部材
  6
CONTINUOUS
 10
1.98755
 20
-63.87628
 11
2.98755
 21
-64.87628
  0
LINE
  8
別途部材
  6
CONTINUOUS
 10
0.98755
 20
-63.87628
 11
1.98755
 21
-63.87628
  0
LINE
  8
別途部材
  6
CONTINUOUS
 10
3.98755
 20
-64.87628
 11
4.98755
 21
-63.87628
  0
LINE
  8
別途部材
  6
CONTINUOUS
 10
5.98755
 20
-63.87628
 11
6.98755
 21
-64.87628
  0
LINE
  8
別途部材
  6
CONTINUOUS
 10
4.98755
 20
-63.87628
 11
5.98755
 21
-63.87628
  0
LINE
  8
別途部材
  6
CONTINUOUS
 10
7.98755
 20
-64.87628
 11
8.98755
 21
-63.87628
  0
LINE
  8
別途部材
  6
CONTINUOUS
 10
9.98755
 20
-63.87628
 11
10.98755
 21
-64.87628
  0
LINE
  8
別途部材
  6
CONTINUOUS
 10
8.98755
 20
-63.87628
 11
9.98755
 21
-63.87628
  0
LINE
  8
別途部材
  6
CONTINUOUS
 10
11.98755
 20
-64.87628
 11
12.98755
 21
-63.87628
  0
LINE
  8
別途部材
  6
CONTINUOUS
 10
13.98755
 20
-63.87628
 11
14.98755
 21
-64.87628
  0
LINE
  8
別途部材
  6
CONTINUOUS
 10
12.98755
 20
-63.87628
 11
13.98755
 21
-63.87628
  0
LINE
  8
別途部材
  6
CONTINUOUS
 10
15.98755
 20
-64.87628
 11
16.98755
 21
-63.87628
  0
LINE
  8
別途部材
  6
CONTINUOUS
 10
17.98755
 20
-63.87628
 11
18.98755
 21
-64.87628
  0
LINE
  8
別途部材
  6
CONTINUOUS
 10
16.98755
 20
-63.87628
 11
17.98755
 21
-63.87628
  0
LINE
  8
別途部材
  6
CONTINUOUS
 10
19.98755
 20
-64.87628
 11
20.98755
 21
-63.87628
  0
LINE
  8
別途部材
  6
CONTINUOUS
 10
21.98755
 20
-63.87628
 11
22.98755
 21
-64.87628
  0
LINE
  8
別途部材
  6
CONTINUOUS
 10
20.98755
 20
-63.87628
 11
21.98755
 21
-63.87628
  0
LINE
  8
別途部材
  6
CONTINUOUS
 10
18.98755
 20
-64.87628
 11
19.98755
 21
-64.87628
  0
LINE
  8
別途部材
  6
CONTINUOUS
 10
14.98755
 20
-64.87628
 11
15.98755
 21
-64.87628
  0
LINE
  8
別途部材
  6
CONTINUOUS
 10
10.98755
 20
-64.87628
 11
11.98755
 21
-64.87628
  0
LINE
  8
別途部材
  6
CONTINUOUS
 10
6.98755
 20
-64.87628
 11
7.98755
 21
-64.87628
  0
LINE
  8
別途部材
  6
CONTINUOUS
 10
2.98755
 20
-64.87628
 11
3.98755
 21
-64.87628
  0
LINE
  8
別途部材
  6
CONTINUOUS
 10
-1.01245
 20
-64.87628
 11
-0.01245
 21
-64.87628
  0
LINE
  8
別途部材
  6
CONTINUOUS
 10
-5.01245
 20
-64.87628
 11
-4.01245
 21
-64.87628
  0
LINE
  8
別途部材
  6
CONTINUOUS
 10
-9.01245
 20
-64.87628
 11
-8.01245
 21
-64.87628
  0
LINE
  8
別途部材
  6
CONTINUOUS
 10
-13.01245
 20
-64.87628
 11
-12.01245
 21
-64.87628
  0
LINE
  8
別途部材
  6
CONTINUOUS
 10
-17.01245
 20
-64.87628
 11
-16.01245
 21
-64.87628
  0
LINE
  8
別途部材
  6
CONTINUOUS
 10
-20.01245
 20
-64.87628
 11
-21.01245
 21
-64.87628
  0
LINE
  8
別途部材
  6
CONTINUOUS
 10
23.98755
 20
-64.87628
 11
24.98755
 21
-63.87628
  0
LINE
  8
別途部材
  6
CONTINUOUS
 10
25.98755
 20
-63.87628
 11
26.98755
 21
-64.87628
  0
LINE
  8
別途部材
  6
CONTINUOUS
 10
24.98755
 20
-63.87628
 11
25.98755
 21
-63.87628
  0
LINE
  8
別途部材
  6
CONTINUOUS
 10
27.98755
 20
-64.87628
 11
28.98755
 21
-63.87628
  0
LINE
  8
別途部材
  6
CONTINUOUS
 10
29.98755
 20
-63.87628
 11
30.98755
 21
-64.87628
  0
LINE
  8
別途部材
  6
CONTINUOUS
 10
28.98755
 20
-63.87628
 11
29.98755
 21
-63.87628
  0
LINE
  8
別途部材
  6
CONTINUOUS
 10
31.98755
 20
-64.87628
 11
32.98755
 21
-63.87628
  0
LINE
  8
別途部材
  6
CONTINUOUS
 10
33.98755
 20
-63.87628
 11
34.98755
 21
-64.87628
  0
LINE
  8
別途部材
  6
CONTINUOUS
 10
32.98755
 20
-63.87628
 11
33.98755
 21
-63.87628
  0
LINE
  8
別途部材
  6
CONTINUOUS
 10
35.98755
 20
-64.87628
 11
36.98755
 21
-63.87628
  0
LINE
  8
別途部材
  6
CONTINUOUS
 10
37.98755
 20
-63.87628
 11
38.98755
 21
-64.87628
  0
LINE
  8
別途部材
  6
CONTINUOUS
 10
36.98755
 20
-63.87628
 11
37.98755
 21
-63.87628
  0
LINE
  8
別途部材
  6
CONTINUOUS
 10
39.98755
 20
-64.87628
 11
40.98755
 21
-63.87628
  0
LINE
  8
別途部材
  6
CONTINUOUS
 10
41.98755
 20
-63.87628
 11
42.98755
 21
-64.87628
  0
LINE
  8
別途部材
  6
CONTINUOUS
 10
40.98755
 20
-63.87628
 11
41.98755
 21
-63.87628
  0
LINE
  8
別途部材
  6
CONTINUOUS
 10
43.98755
 20
-64.87628
 11
44.98755
 21
-63.87628
  0
LINE
  8
別途部材
  6
CONTINUOUS
 10
45.98755
 20
-63.87628
 11
46.98755
 21
-64.87628
  0
LINE
  8
別途部材
  6
CONTINUOUS
 10
44.98755
 20
-63.87628
 11
45.98755
 21
-63.87628
  0
LINE
  8
別途部材
  6
CONTINUOUS
 10
47.98755
 20
-64.87628
 11
48.98755
 21
-63.87628
  0
LINE
  8
別途部材
  6
CONTINUOUS
 10
49.98755
 20
-63.87628
 11
50.98755
 21
-64.87628
  0
LINE
  8
別途部材
  6
CONTINUOUS
 10
48.98755
 20
-63.87628
 11
49.98755
 21
-63.87628
  0
LINE
  8
別途部材
  6
CONTINUOUS
 10
51.98755
 20
-64.87628
 11
52.98755
 21
-63.87628
  0
LINE
  8
別途部材
  6
CONTINUOUS
 10
53.98755
 20
-63.87628
 11
54.98755
 21
-64.87628
  0
LINE
  8
別途部材
  6
CONTINUOUS
 10
52.98755
 20
-63.87628
 11
53.98755
 21
-63.87628
  0
LINE
  8
別途部材
  6
CONTINUOUS
 10
50.98755
 20
-64.87628
 11
51.98755
 21
-64.87628
  0
LINE
  8
別途部材
  6
CONTINUOUS
 10
46.98755
 20
-64.87628
 11
47.98755
 21
-64.87628
  0
LINE
  8
別途部材
  6
CONTINUOUS
 10
42.98755
 20
-64.87628
 11
43.98755
 21
-64.87628
  0
LINE
  8
別途部材
  6
CONTINUOUS
 10
38.98755
 20
-64.87628
 11
39.98755
 21
-64.87628
  0
LINE
  8
別途部材
  6
CONTINUOUS
 10
34.98755
 20
-64.87628
 11
35.98755
 21
-64.87628
  0
LINE
  8
別途部材
  6
CONTINUOUS
 10
30.98755
 20
-64.87628
 11
31.98755
 21
-64.87628
  0
LINE
  8
別途部材
  6
CONTINUOUS
 10
26.98755
 20
-64.87628
 11
27.98755
 21
-64.87628
  0
LINE
  8
別途部材
  6
CONTINUOUS
 10
22.98755
 20
-64.87628
 11
23.98755
 21
-64.87628
  0
LINE
  8
別途部材
  6
CONTINUOUS
 10
55.98755
 20
-64.87628
 11
56.98755
 21
-63.87628
  0
LINE
  8
別途部材
  6
CONTINUOUS
 10
57.98755
 20
-63.87628
 11
58.98755
 21
-64.87628
  0
LINE
  8
別途部材
  6
CONTINUOUS
 10
56.98755
 20
-63.87628
 11
57.98755
 21
-63.87628
  0
LINE
  8
別途部材
  6
CONTINUOUS
 10
54.98755
 20
-64.87628
 11
55.98755
 21
-64.87628
  0
LINE
  8
別途部材
  6
CONTINUOUS
 10
59.98755
 20
-64.87628
 11
60.98755
 21
-63.87628
  0
LINE
  8
別途部材
  6
CONTINUOUS
 10
61.98755
 20
-63.87628
 11
62.98755
 21
-64.87628
  0
LINE
  8
別途部材
  6
CONTINUOUS
 10
60.98755
 20
-63.87628
 11
61.98755
 21
-63.87628
  0
LINE
  8
別途部材
  6
CONTINUOUS
 10
58.98755
 20
-64.87628
 11
59.98755
 21
-64.87628
  0
LINE
  8
別途部材
  6
CONTINUOUS
 10
62.98755
 20
-64.87628
 11
62.98755
 21
-70.209613
  0
LINE
  8
別途部材
  6
CONTINUOUS
 10
61.98755
 20
-63.87628
 11
61.98755
 21
-70.209613
  0
LINE
  8
別途部材
  6
CONTINUOUS
 10
60.98755
 20
-63.87628
 11
60.98755
 21
-70.209613
  0
LINE
  8
別途部材
  6
CONTINUOUS
 10
58.98755
 20
-64.87628
 11
58.98755
 21
-70.209613
  0
LINE
  8
別途部材
  6
CONTINUOUS
 10
59.98755
 20
-64.87628
 11
59.98755
 21
-70.209613
  0
LINE
  8
別途部材
  6
CONTINUOUS
 10
57.98755
 20
-63.87628
 11
57.98755
 21
-70.209613
  0
LINE
  8
別途部材
  6
CONTINUOUS
 10
56.98755
 20
-63.87628
 11
56.98755
 21
-70.209613
  0
LINE
  8
別途部材
  6
CONTINUOUS
 10
54.98755
 20
-64.87628
 11
54.98755
 21
-70.209613
  0
LINE
  8
別途部材
  6
CONTINUOUS
 10
52.98755
 20
-63.87628
 11
52.98755
 21
-70.209613
  0
LINE
  8
別途部材
  6
CONTINUOUS
 10
51.98755
 20
-64.87628
 11
51.98755
 21
-70.209613
  0
LINE
  8
別途部材
  6
CONTINUOUS
 10
53.98755
 20
-63.87628
 11
53.98755
 21
-70.209613
  0
LINE
  8
別途部材
  6
CONTINUOUS
 10
55.98755
 20
-64.87628
 11
55.98755
 21
-70.209613
  0
LINE
  8
別途部材
  6
CONTINUOUS
 10
50.98755
 20
-64.87628
 11
50.98755
 21
-70.209613
  0
LINE
  8
別途部材
  6
CONTINUOUS
 10
49.98755
 20
-63.87628
 11
49.98755
 21
-70.209613
  0
LINE
  8
別途部材
  6
CONTINUOUS
 10
47.98755
 20
-64.87628
 11
47.98755
 21
-70.209613
  0
LINE
  8
別途部材
  6
CONTINUOUS
 10
48.98755
 20
-63.87628
 11
48.98755
 21
-70.209613
  0
LINE
  8
別途部材
  6
CONTINUOUS
 10
45.98755
 20
-63.87628
 11
45.98755
 21
-70.209613
  0
LINE
  8
別途部材
  6
CONTINUOUS
 10
46.98755
 20
-64.87628
 11
46.98755
 21
-70.209613
  0
LINE
  8
別途部材
  6
CONTINUOUS
 10
44.98755
 20
-63.87628
 11
44.98755
 21
-70.209613
  0
LINE
  8
別途部材
  6
CONTINUOUS
 10
43.98755
 20
-64.87628
 11
43.98755
 21
-70.209613
  0
LINE
  8
別途部材
  6
CONTINUOUS
 10
41.98755
 20
-63.87628
 11
41.98755
 21
-70.209613
  0
LINE
  8
別途部材
  6
CONTINUOUS
 10
42.98755
 20
-64.87628
 11
42.98755
 21
-70.209613
  0
LINE
  8
別途部材
  6
CONTINUOUS
 10
39.98755
 20
-64.87628
 11
39.98755
 21
-70.209613
  0
LINE
  8
別途部材
  6
CONTINUOUS
 10
40.98755
 20
-63.87628
 11
40.98755
 21
-70.209613
  0
LINE
  8
別途部材
  6
CONTINUOUS
 10
38.98755
 20
-64.87628
 11
38.98755
 21
-70.209613
  0
LINE
  8
別途部材
  6
CONTINUOUS
 10
36.98755
 20
-63.87628
 11
36.98755
 21
-70.209613
  0
LINE
  8
別途部材
  6
CONTINUOUS
 10
37.98755
 20
-63.87628
 11
37.98755
 21
-70.209613
  0
LINE
  8
別途部材
  6
CONTINUOUS
 10
35.98755
 20
-64.87628
 11
35.98755
 21
-70.209613
  0
LINE
  8
別途部材
  6
CONTINUOUS
 10
34.98755
 20
-64.87628
 11
34.98755
 21
-70.209613
  0
LINE
  8
別途部材
  6
CONTINUOUS
 10
33.98755
 20
-63.87628
 11
33.98755
 21
-70.209613
  0
LINE
  8
別途部材
  6
CONTINUOUS
 10
32.98755
 20
-63.87628
 11
32.98755
 21
-70.209613
  0
LINE
  8
別途部材
  6
CONTINUOUS
 10
29.98755
 20
-63.87628
 11
29.98755
 21
-70.209613
  0
LINE
  8
別途部材
  6
CONTINUOUS
 10
27.98755
 20
-64.87628
 11
27.98755
 21
-70.209613
  0
LINE
  8
別途部材
  6
CONTINUOUS
 10
28.98755
 20
-63.87628
 11
28.98755
 21
-70.209613
  0
LINE
  8
別途部材
  6
CONTINUOUS
 10
30.98755
 20
-64.87628
 11
30.98755
 21
-70.209613
  0
LINE
  8
別途部材
  6
CONTINUOUS
 10
31.98755
 20
-64.87628
 11
31.98755
 21
-70.209613
  0
LINE
  8
別途部材
  6
CONTINUOUS
 10
26.98755
 20
-64.87628
 11
26.98755
 21
-70.209613
  0
LINE
  8
別途部材
  6
CONTINUOUS
 10
24.98755
 20
-63.87628
 11
24.98755
 21
-70.209613
  0
LINE
  8
別途部材
  6
CONTINUOUS
 10
25.98755
 20
-63.87628
 11
25.98755
 21
-70.209613
  0
LINE
  8
別途部材
  6
CONTINUOUS
 10
23.98755
 20
-64.87628
 11
23.98755
 21
-70.209613
  0
LINE
  8
別途部材
  6
CONTINUOUS
 10
21.98755
 20
-63.87628
 11
21.98755
 21
-70.209613
  0
LINE
  8
別途部材
  6
CONTINUOUS
 10
22.98755
 20
-64.87628
 11
22.98755
 21
-70.209613
  0
LINE
  8
別途部材
  6
CONTINUOUS
 10
20.98755
 20
-63.87628
 11
20.98755
 21
-70.209613
  0
LINE
  8
別途部材
  6
CONTINUOUS
 10
19.98755
 20
-64.87628
 11
19.98755
 21
-70.209613
  0
LINE
  8
別途部材
  6
CONTINUOUS
 10
17.98755
 20
-63.87628
 11
17.98755
 21
-70.209613
  0
LINE
  8
別途部材
  6
CONTINUOUS
 10
18.98755
 20
-64.87628
 11
18.98755
 21
-70.209613
  0
LINE
  8
別途部材
  6
CONTINUOUS
 10
14.98755
 20
-64.87628
 11
14.98755
 21
-70.209613
  0
LINE
  8
別途部材
  6
CONTINUOUS
 10
15.98755
 20
-64.87628
 11
15.98755
 21
-70.209613
  0
LINE
  8
別途部材
  6
CONTINUOUS
 10
16.98755
 20
-63.87628
 11
16.98755
 21
-70.209613
  0
LINE
  8
別途部材
  6
CONTINUOUS
 10
13.98755
 20
-63.87628
 11
13.98755
 21
-70.209613
  0
LINE
  8
別途部材
  6
CONTINUOUS
 10
12.98755
 20
-63.87628
 11
12.98755
 21
-70.209613
  0
LINE
  8
別途部材
  6
CONTINUOUS
 10
11.98755
 20
-64.87628
 11
11.98755
 21
-70.209613
  0
LINE
  8
別途部材
  6
CONTINUOUS
 10
9.98755
 20
-63.87628
 11
9.98755
 21
-70.209613
  0
LINE
  8
別途部材
  6
CONTINUOUS
 10
5.98755
 20
-63.87628
 11
5.98755
 21
-70.209613
  0
LINE
  8
別途部材
  6
CONTINUOUS
 10
6.98755
 20
-64.87628
 11
6.98755
 21
-70.209613
  0
LINE
  8
別途部材
  6
CONTINUOUS
 10
7.98755
 20
-64.87628
 11
7.98755
 21
-70.209613
  0
LINE
  8
別途部材
  6
CONTINUOUS
 10
8.98755
 20
-63.87628
 11
8.98755
 21
-70.209613
  0
LINE
  8
別途部材
  6
CONTINUOUS
 10
10.98755
 20
-64.87628
 11
10.98755
 21
-70.209613
  0
LINE
  8
別途部材
  6
CONTINUOUS
 10
3.98755
 20
-64.87628
 11
3.98755
 21
-70.209613
  0
LINE
  8
別途部材
  6
CONTINUOUS
 10
4.98755
 20
-63.87628
 11
4.98755
 21
-70.209613
  0
LINE
  8
別途部材
  6
CONTINUOUS
 10
2.98755
 20
-64.87628
 11
2.98755
 21
-70.209613
  0
LINE
  8
別途部材
  6
CONTINUOUS
 10
1.98755
 20
-63.87628
 11
1.98755
 21
-70.209613
  0
LINE
  8
別途部材
  6
CONTINUOUS
 10
-2.01245
 20
-63.87628
 11
-2.01245
 21
-70.209613
  0
LINE
  8
別途部材
  6
CONTINUOUS
 10
-3.01245
 20
-63.87628
 11
-3.01245
 21
-70.209613
  0
LINE
  8
別途部材
  6
CONTINUOUS
 10
-1.01245
 20
-64.87628
 11
-1.01245
 21
-70.209613
  0
LINE
  8
別途部材
  6
CONTINUOUS
 10
-0.01245
 20
-64.87628
 11
-0.01245
 21
-70.209613
  0
LINE
  8
別途部材
  6
CONTINUOUS
 10
0.98755
 20
-63.87628
 11
0.98755
 21
-70.209613
  0
LINE
  8
別途部材
  6
CONTINUOUS
 10
-4.01245
 20
-64.87628
 11
-4.01245
 21
-70.209613
  0
LINE
  8
別途部材
  6
CONTINUOUS
 10
-6.01245
 20
-63.87628
 11
-6.01245
 21
-70.209613
  0
LINE
  8
別途部材
  6
CONTINUOUS
 10
-7.01245
 20
-63.87628
 11
-7.01245
 21
-70.209613
  0
LINE
  8
別途部材
  6
CONTINUOUS
 10
-8.01245
 20
-64.87628
 11
-8.01245
 21
-70.209613
  0
LINE
  8
別途部材
  6
CONTINUOUS
 10
-9.01245
 20
-64.87628
 11
-9.01245
 21
-70.209613
  0
LINE
  8
別途部材
  6
CONTINUOUS
 10
-10.01245
 20
-63.87628
 11
-10.01245
 21
-70.209613
  0
LINE
  8
別途部材
  6
CONTINUOUS
 10
-5.01245
 20
-64.87628
 11
-5.01245
 21
-70.209613
  0
LINE
  8
別途部材
  6
CONTINUOUS
 10
-11.01245
 20
-63.87628
 11
-11.01245
 21
-70.209613
  0
LINE
  8
別途部材
  6
CONTINUOUS
 10
-12.01245
 20
-64.87628
 11
-12.01245
 21
-70.209613
  0
LINE
  8
別途部材
  6
CONTINUOUS
 10
-13.01245
 20
-64.87628
 11
-13.01245
 21
-70.209613
  0
LINE
  8
別途部材
  6
CONTINUOUS
 10
-15.01245
 20
-63.87628
 11
-15.01245
 21
-70.209613
  0
LINE
  8
別途部材
  6
CONTINUOUS
 10
-17.01245
 20
-64.87628
 11
-17.01245
 21
-70.209613
  0
LINE
  8
別途部材
  6
CONTINUOUS
 10
-18.01245
 20
-63.87628
 11
-18.01245
 21
-70.209613
  0
LINE
  8
別途部材
  6
CONTINUOUS
 10
-20.01245
 20
-64.87628
 11
-20.01245
 21
-70.209613
  0
LINE
  8
別途部材
  6
CONTINUOUS
 10
-21.01245
 20
-64.87628
 11
-21.01245
 21
-70.209613
  0
LINE
  8
別途部材
  6
CONTINUOUS
 10
-22.01245
 20
-63.87628
 11
-22.01245
 21
-70.209613
  0
LINE
  8
別途部材
  6
CONTINUOUS
 10
-19.01245
 20
-63.87628
 11
-19.01245
 21
-70.209613
  0
LINE
  8
別途部材
  6
CONTINUOUS
 10
-16.01245
 20
-64.87628
 11
-16.01245
 21
-70.209613
  0
LINE
  8
別途部材
  6
CONTINUOUS
 10
-14.01245
 20
-63.87628
 11
-14.01245
 21
-70.209613
  0
LINE
  8
別途部材
  6
CONTINUOUS
 10
63.98755
 20
-64.87628
 11
64.98755
 21
-63.87628
  0
LINE
  8
別途部材
  6
CONTINUOUS
 10
65.98755
 20
-63.87628
 11
66.98755
 21
-64.87628
  0
LINE
  8
別途部材
  6
CONTINUOUS
 10
64.98755
 20
-63.87628
 11
65.98755
 21
-63.87628
  0
LINE
  8
別途部材
  6
CONTINUOUS
 10
62.98755
 20
-64.87628
 11
63.98755
 21
-64.87628
  0
LINE
  8
別途部材
  6
CONTINUOUS
 10
66.98755
 20
-64.87628
 11
66.98755
 21
-70.209613
  0
LINE
  8
別途部材
  6
CONTINUOUS
 10
65.98755
 20
-63.87628
 11
65.98755
 21
-70.209613
  0
LINE
  8
別途部材
  6
CONTINUOUS
 10
64.98755
 20
-63.87628
 11
64.98755
 21
-70.209613
  0
LINE
  8
別途部材
  6
CONTINUOUS
 10
63.98755
 20
-64.87628
 11
63.98755
 21
-70.209613
  0
LINE
  8
別途部材
  6
CONTINUOUS
 10
66.98755
 20
-64.87628
 11
67.48755
 21
-64.87628
  0
ENDBLK
  0
BLOCK
  2
*DIM_0015
 70
    65
 10
0.0
 20
0.0
  0
LINE
  8
寸法
  6
BYBLOCK
 62
     0
 10
145.328765
 20
-87.823622
 11
155.941423
 21
-87.823622
  0
LINE
  8
寸法
  6
BYBLOCK
 62
     0
 10
145.328765
 20
-68.49029
 11
155.941423
 21
-68.49029
  0
LINE
  8
寸法
  6
BYBLOCK
 62
     0
 10
155.941423
 20
-87.823622
 11
155.941423
 21
-68.49029
  0
POINT
  8
寸法
 62
     0
 10
155.941423
 20
-87.823622
  0
POINT
  8
寸法
 62
     0
 10
155.941423
 20
-68.49029
  0
TEXT
  7
TextStyle03
  8
寸法
  6
CONTINUOUS
 62
     0
 10
155.55
 20
-80.6125
  1
580
 40
3.0
 50
90.0
 72
     5
 11
155.55
 21
-75.7375
  0
ENDBLK
  0
BLOCK
  2
*DIM_0016
 70
    65
 10
0.0
 20
0.0
  0
LINE
  8
寸法
  6
BYBLOCK
 62
     0
 10
-125.51245
 20
39.4807
 11
-138.805288
 21
39.4807
  0
LINE
  8
寸法
  6
BYBLOCK
 62
     0
 10
-125.51245
 20
26.147365
 11
-138.805288
 21
26.147365
  0
LINE
  8
寸法
  6
BYBLOCK
 62
     0
 10
-138.805288
 20
39.4807
 11
-138.805288
 21
26.147365
  0
POINT
  8
寸法
 62
     0
 10
-138.805288
 20
39.4807
  0
POINT
  8
寸法
 62
     0
 10
-138.805288
 20
26.147365
  0
TEXT
  7
TextStyle03
  8
寸法
  6
CONTINUOUS
 62
     0
 10
-139.2
 20
30.3625
  1
400
 40
3.0
 50
90.0
 72
     5
 11
-139.2
 21
35.2375
  0
ENDBLK
  0
BLOCK
  2
*DIM_0017
 70
    65
 10
0.0
 20
0.0
  0
LINE
  8
寸法
  6
BYBLOCK
 62
     0
 10
-115.845783
 20
45.814033
 11
-115.845783
 21
74.922105
  0
LINE
  8
寸法
  6
BYBLOCK
 62
     0
 10
-92.51245
 20
45.814033
 11
-92.51245
 21
74.922105
  0
LINE
  8
寸法
  6
BYBLOCK
 62
     0
 10
-115.845783
 20
74.922105
 11
-92.51245
 21
74.922105
  0
POINT
  8
寸法
 62
     0
 10
-115.845783
 20
74.922105
  0
POINT
  8
寸法
 62
     0
 10
-92.51245
 20
74.922105
  0
TEXT
  7
TextStyle03
  8
寸法
  6
CONTINUOUS
 62
     0
 10
-106.6125
 20
75.275
  1
700
 40
3.0
 72
     5
 11
-101.7375
 21
75.275
  0
ENDBLK
  0
BLOCK
  2
*DIM_0018
 70
    65
 10
0.0
 20
0.0
  0
LINE
  8
寸法
  6
BYBLOCK
 62
     0
 10
-69.179118
 20
45.814033
 11
-69.179118
 21
74.922105
  0
LINE
  8
寸法
  6
BYBLOCK
 62
     0
 10
-92.51245
 20
74.922105
 11
-69.179118
 21
74.922105
  0
POINT
  8
寸法
 62
     0
 10
-69.179118
 20
74.922105
  0
TEXT
  7
TextStyle03
  8
寸法
  6
CONTINUOUS
 62
     0
 10
-83.2875
 20
75.275
  1
700
 40
3.0
 72
     5
 11
-78.4125
 21
75.275
  0
ENDBLK
  0
BLOCK
  2
*DIM_0019
 70
    65
 10
0.0
 20
0.0
  0
LINE
  8
寸法
  6
BYBLOCK
 62
     0
 10
-45.845783
 20
45.814033
 11
-45.845783
 21
74.922105
  0
LINE
  8
寸法
  6
BYBLOCK
 62
     0
 10
-69.179118
 20
74.922105
 11
-45.845783
 21
74.922105
  0
POINT
  8
寸法
 62
     0
 10
-45.845783
 20
74.922105
  0
TEXT
  7
TextStyle03
  8
寸法
  6
CONTINUOUS
 62
     0
 10
-59.9375
 20
75.275
  1
700
 40
3.0
 72
     5
 11
-55.0625
 21
75.275
  0
ENDBLK
  0
BLOCK
  2
*DIM_0020
 70
    65
 10
0.0
 20
0.0
  0
LINE
  8
寸法
  6
BYBLOCK
 62
     0
 10
-22.51245
 20
45.814033
 11
-22.51245
 21
74.922105
  0
LINE
  8
寸法
  6
BYBLOCK
 62
     0
 10
-45.845783
 20
74.922105
 11
-22.51245
 21
74.922105
  0
POINT
  8
寸法
 62
     0
 10
-22.51245
 20
74.922105
  0
TEXT
  7
TextStyle03
  8
寸法
  6
CONTINUOUS
 62
     0
 10
-36.6125
 20
75.275
  1
700
 40
3.0
 72
     5
 11
-31.7375
 21
75.275
  0
ENDBLK
  0
BLOCK
  2
*DIM_0021
 70
    65
 10
0.0
 20
0.0
  0
LINE
  8
寸法
  6
BYBLOCK
 62
     0
 10
0.820882
 20
45.814033
 11
0.820882
 21
74.922105
  0
LINE
  8
寸法
  6
BYBLOCK
 62
     0
 10
-22.51245
 20
74.922105
 11
0.820882
 21
74.922105
  0
POINT
  8
寸法
 62
     0
 10
0.820882
 20
74.922105
  0
TEXT
  7
TextStyle03
  8
寸法
  6
CONTINUOUS
 62
     0
 10
-13.2875
 20
75.275
  1
700
 40
3.0
 72
     5
 11
-8.4125
 21
75.275
  0
ENDBLK
  0
BLOCK
  2
*DIM_0022
 70
    65
 10
0.0
 20
0.0
  0
LINE
  8
寸法
  6
BYBLOCK
 62
     0
 10
24.154218
 20
45.814033
 11
24.154218
 21
74.922105
  0
LINE
  8
寸法
  6
BYBLOCK
 62
     0
 10
0.820882
 20
74.922105
 11
24.154218
 21
74.922105
  0
POINT
  8
寸法
 62
     0
 10
24.154218
 20
74.922105
  0
TEXT
  7
TextStyle03
  8
寸法
  6
CONTINUOUS
 62
     0
 10
10.0625
 20
75.275
  1
700
 40
3.0
 72
     5
 11
14.9375
 21
75.275
  0
ENDBLK
  0
BLOCK
  2
*DIM_0023
 70
    65
 10
0.0
 20
0.0
  0
LINE
  8
寸法
  6
BYBLOCK
 62
     0
 10
47.48755
 20
45.814033
 11
47.48755
 21
74.922105
  0
LINE
  8
寸法
  6
BYBLOCK
 62
     0
 10
24.154218
 20
74.922105
 11
47.48755
 21
74.922105
  0
POINT
  8
寸法
 62
     0
 10
47.48755
 20
74.922105
  0
TEXT
  7
TextStyle03
  8
寸法
  6
CONTINUOUS
 62
     0
 10
33.3875
 20
75.275
  1
700
 40
3.0
 72
     5
 11
38.2625
 21
75.275
  0
ENDBLK
  0
BLOCK
  2
*DIM_0024
 70
    65
 10
0.0
 20
0.0
  0
LINE
  8
寸法
  6
BYBLOCK
 62
     0
 10
70.820882
 20
45.814033
 11
70.820882
 21
74.922105
  0
LINE
  8
寸法
  6
BYBLOCK
 62
     0
 10
47.48755
 20
74.922105
 11
70.820882
 21
74.922105
  0
POINT
  8
寸法
 62
     0
 10
70.820882
 20
74.922105
  0
TEXT
  7
TextStyle03
  8
寸法
  6
CONTINUOUS
 62
     0
 10
56.7125
 20
75.275
  1
700
 40
3.0
 72
     5
 11
61.5875
 21
75.275
  0
ENDBLK
  0
BLOCK
  2
*DIM_0025
 70
    65
 10
0.0
 20
0.0
  0
LINE
  8
寸法
  6
CONTINUOUS
 10
110.578652
 20
-63.49029
 11
110.578652
 21
-56.38666
  0
LINE
  8
寸法
  6
CONTINUOUS
 10
142.88432
 20
-63.49029
 11
142.88432
 21
-56.38666
  0
LINE
  8
寸法
  6
CONTINUOUS
 10
110.578652
 20
-56.38666
 11
142.88432
 21
-56.38666
  0
POINT
  8
寸法
 10
110.578652
 20
-56.38666
  0
POINT
  8
寸法
 10
142.88432
 20
-56.38666
  0
TEXT
  7
TextStyle03
  8
寸法
  6
CONTINUOUS
 10
122.6
 20
-56.025
  1
969.2
 40
3.0
 72
     5
 11
130.85
 21
-56.025
  0
ENDBLK
  0
BLOCK
  2
*GRP_0026
 70
    65
 10
0.0
 20
0.0
  0
LINE
  8
ボルト／ビス
  6
CONTINUOUS
 10
-123.179118
 20
-70.209613
 11
-123.179118
 21
-69.742947
  0
LINE
  8
ボルト／ビス
  6
CONTINUOUS
 10
-123.545785
 20
-70.209613
 11
-123.545785
 21
-70.142947
  0
LINE
  8
ボルト／ビス
  6
CONTINUOUS
 10
-123.545785
 20
-70.142947
 11
-122.812453
 21
-70.142947
  0
LINE
  8
ボルト／ビス
  6
CONTINUOUS
 10
-122.812453
 20
-70.142947
 11
-122.812453
 21
-70.209613
  0
LINE
  8
ボルト／ビス
  6
CONTINUOUS
 10
-123.545785
 20
-70.209613
 11
-122.812453
 21
-70.209613
  0
LINE
  8
ボルト／ビス
  6
CONTINUOUS
 10
-123.479118
 20
-70.109612
 11
-123.479118
 21
-70.142947
  0
LINE
  8
ボルト／ビス
  6
CONTINUOUS
 10
-123.479118
 20
-70.109612
 11
-122.879118
 21
-70.109612
  0
LINE
  8
ボルト／ビス
  6
CONTINUOUS
 10
-122.879118
 20
-70.109612
 11
-122.879118
 21
-70.142947
  0
LINE
  8
ボルト／ビス
  6
CONTINUOUS
 62
    64
 10
-123.339492
 20
-69.909613
 11
-123.371568
 21
-69.921288
  0
ARC
  8
ボルト／ビス
  6
CONTINUOUS
 62
    64
 10
-123.323455
 20
-70.014592
 40
0.104978
 50
62.721967
 51
90.0
  0
ARC
  8
ボルト／ビス
  6
CONTINUOUS
 62
    64
 10
-123.179117
 20
-70.312015
 40
0.402402
 50
76.165002
 51
103.834985
  0
LINE
  8
ボルト／ビス
  6
CONTINUOUS
 62
    64
 10
-123.018743
 20
-69.909613
 11
-122.986668
 21
-69.921288
  0
ARC
  8
ボルト／ビス
  6
CONTINUOUS
 62
    64
 10
-123.03478
 20
-70.014592
 40
0.104978
 50
90.0
 51
117.278033
  0
LINE
  8
ボルト／ビス
  6
CONTINUOUS
 62
    64
 10
-123.339492
 20
-69.909613
 11
-123.018743
 21
-69.909613
  0
LINE
  8
ボルト／ビス
  6
CONTINUOUS
 62
    64
 10
-122.986668
 20
-69.921288
 11
-122.986668
 21
-70.042947
  0
LINE
  8
ボルト／ビス
  6
CONTINUOUS
 62
    64
 10
-123.082892
 20
-69.921288
 11
-123.082892
 21
-70.042947
  0
LINE
  8
ボルト／ビス
  6
CONTINUOUS
 62
    64
 10
-123.371568
 20
-69.921288
 11
-123.371568
 21
-70.042947
  0
LINE
  8
ボルト／ビス
  6
CONTINUOUS
 62
    64
 10
-123.275342
 20
-69.921288
 11
-123.275342
 21
-70.042947
  0
LINE
  8
ボルト／ビス
  6
CONTINUOUS
 10
-123.371568
 20
-70.042947
 11
-122.986668
 21
-70.042947
  0
LINE
  8
ボルト／ビス
  6
CONTINUOUS
 10
-123.379118
 20
-70.042947
 11
-123.379118
 21
-70.109612
  0
LINE
  8
ボルト／ビス
  6
CONTINUOUS
 10
-123.379118
 20
-70.042947
 11
-122.979118
 21
-70.042947
  0
LINE
  8
ボルト／ビス
  6
CONTINUOUS
 10
-122.979118
 20
-70.042947
 11
-122.979118
 21
-70.109612
  0
ENDBLK
  0
BLOCK
  2
*GRP_0027
 70
    65
 10
0.0
 20
0.0
  0
LINE
  8
ボルト／ビス
  6
CONTINUOUS
 10
78.154218
 20
-70.209613
 11
78.154218
 21
-69.742947
  0
LINE
  8
ボルト／ビス
  6
CONTINUOUS
 10
77.78755
 20
-70.209613
 11
77.78755
 21
-70.142947
  0
LINE
  8
ボルト／ビス
  6
CONTINUOUS
 10
77.78755
 20
-70.142947
 11
78.520882
 21
-70.142947
  0
LINE
  8
ボルト／ビス
  6
CONTINUOUS
 10
78.520882
 20
-70.142947
 11
78.520882
 21
-70.209613
  0
LINE
  8
ボルト／ビス
  6
CONTINUOUS
 10
77.78755
 20
-70.209613
 11
78.520882
 21
-70.209613
  0
LINE
  8
ボルト／ビス
  6
CONTINUOUS
 10
77.854218
 20
-70.109612
 11
77.854218
 21
-70.142947
  0
LINE
  8
ボルト／ビス
  6
CONTINUOUS
 10
77.854218
 20
-70.109612
 11
78.454218
 21
-70.109612
  0
LINE
  8
ボルト／ビス
  6
CONTINUOUS
 10
78.454218
 20
-70.109612
 11
78.454218
 21
-70.142947
  0
LINE
  8
ボルト／ビス
  6
CONTINUOUS
 62
    64
 10
77.993843
 20
-69.909613
 11
77.961767
 21
-69.921288
  0
ARC
  8
ボルト／ビス
  6
CONTINUOUS
 62
    64
 10
78.00988
 20
-70.014592
 40
0.104978
 50
62.721967
 51
90.0
  0
ARC
  8
ボルト／ビス
  6
CONTINUOUS
 62
    64
 10
78.154218
 20
-70.312015
 40
0.402402
 50
76.165002
 51
103.834985
  0
LINE
  8
ボルト／ビス
  6
CONTINUOUS
 62
    64
 10
78.314593
 20
-69.909613
 11
78.346667
 21
-69.921288
  0
ARC
  8
ボルト／ビス
  6
CONTINUOUS
 62
    64
 10
78.298555
 20
-70.014592
 40
0.104978
 50
90.0
 51
117.278033
  0
LINE
  8
ボルト／ビス
  6
CONTINUOUS
 62
    64
 10
77.993843
 20
-69.909613
 11
78.314593
 21
-69.909613
  0
LINE
  8
ボルト／ビス
  6
CONTINUOUS
 62
    64
 10
78.346667
 20
-69.921288
 11
78.346667
 21
-70.042947
  0
LINE
  8
ボルト／ビス
  6
CONTINUOUS
 62
    64
 10
78.250442
 20
-69.921288
 11
78.250442
 21
-70.042947
  0
LINE
  8
ボルト／ビス
  6
CONTINUOUS
 62
    64
 10
77.961767
 20
-69.921288
 11
77.961767
 21
-70.042947
  0
LINE
  8
ボルト／ビス
  6
CONTINUOUS
 62
    64
 10
78.057992
 20
-69.921288
 11
78.057992
 21
-70.042947
  0
LINE
  8
ボルト／ビス
  6
CONTINUOUS
 10
77.961767
 20
-70.042947
 11
78.346667
 21
-70.042947
  0
LINE
  8
ボルト／ビス
  6
CONTINUOUS
 10
77.954218
 20
-70.042947
 11
77.954218
 21
-70.109612
  0
LINE
  8
ボルト／ビス
  6
CONTINUOUS
 10
77.954218
 20
-70.042947
 11
78.354218
 21
-70.042947
  0
LINE
  8
ボルト／ビス
  6
CONTINUOUS
 10
78.354218
 20
-70.042947
 11
78.354218
 21
-70.109612
  0
ENDBLK
  0
BLOCK
  2
*GRP_0028
 70
    65
 10
0.0
 20
0.0
  0
LINE
  8
ボルト／ビス
  6
CONTINUOUS
 10
167.020815
 20
22.147365
 11
166.55415
 21
22.147365
  0
LINE
  8
ボルト／ビス
  6
CONTINUOUS
 10
167.020815
 20
21.780697
 11
166.95415
 21
21.780697
  0
LINE
  8
ボルト／ビス
  6
CONTINUOUS
 10
166.95415
 20
21.780697
 11
166.95415
 21
22.51403
  0
LINE
  8
ボルト／ビス
  6
CONTINUOUS
 10
166.95415
 20
22.51403
 11
167.020815
 21
22.51403
  0
LINE
  8
ボルト／ビス
  6
CONTINUOUS
 10
167.020815
 20
21.780697
 11
167.020815
 21
22.51403
  0
LINE
  8
ボルト／ビス
  6
CONTINUOUS
 10
166.920815
 20
21.847365
 11
166.95415
 21
21.847365
  0
LINE
  8
ボルト／ビス
  6
CONTINUOUS
 10
166.920815
 20
21.847365
 11
166.920815
 21
22.447365
  0
LINE
  8
ボルト／ビス
  6
CONTINUOUS
 10
166.920815
 20
22.447365
 11
166.95415
 21
22.447365
  0
LINE
  8
ボルト／ビス
  6
CONTINUOUS
 62
    64
 10
166.720815
 20
21.98699
 11
166.73249
 21
21.954915
  0
ARC
  8
ボルト／ビス
  6
CONTINUOUS
 62
    64
 10
166.825795
 20
22.003027
 40
0.104978
 50
152.721967
 51
180.0
  0
ARC
  8
ボルト／ビス
  6
CONTINUOUS
 62
    64
 10
167.123219
 20
22.147365
 40
0.402402
 50
166.165002
 51
193.834985
  0
LINE
  8
ボルト／ビス
  6
CONTINUOUS
 62
    64
 10
166.720815
 20
22.30774
 11
166.73249
 21
22.339815
  0
ARC
  8
ボルト／ビス
  6
CONTINUOUS
 62
    64
 10
166.825795
 20
22.291702
 40
0.104978
 50
180.0
 51
207.278033
  0
LINE
  8
ボルト／ビス
  6
CONTINUOUS
 62
    64
 10
166.720815
 20
21.98699
 11
166.720815
 21
22.30774
  0
LINE
  8
ボルト／ビス
  6
CONTINUOUS
 62
    64
 10
166.73249
 20
22.339815
 11
166.85415
 21
22.339815
  0
LINE
  8
ボルト／ビス
  6
CONTINUOUS
 62
    64
 10
166.73249
 20
22.24359
 11
166.85415
 21
22.24359
  0
LINE
  8
ボルト／ビス
  6
CONTINUOUS
 62
    64
 10
166.73249
 20
21.954915
 11
166.85415
 21
21.954915
  0
LINE
  8
ボルト／ビス
  6
CONTINUOUS
 62
    64
 10
166.73249
 20
22.05114
 11
166.85415
 21
22.05114
  0
LINE
  8
ボルト／ビス
  6
CONTINUOUS
 10
166.85415
 20
21.954915
 11
166.85415
 21
22.339815
  0
LINE
  8
ボルト／ビス
  6
CONTINUOUS
 10
166.85415
 20
21.947365
 11
166.920815
 21
21.947365
  0
LINE
  8
ボルト／ビス
  6
CONTINUOUS
 10
166.85415
 20
21.947365
 11
166.85415
 21
22.347365
  0
LINE
  8
ボルト／ビス
  6
CONTINUOUS
 10
166.85415
 20
22.347365
 11
166.920815
 21
22.347365
  0
ENDBLK
  0
BLOCK
  2
*GRP_0029
 70
    65
 10
0.0
 20
0.0
  0
LINE
  8
ボルト／ビス
  6
CONTINUOUS
 10
167.020815
 20
43.4807
 11
166.55415
 21
43.4807
  0
LINE
  8
ボルト／ビス
  6
CONTINUOUS
 10
167.020815
 20
43.114033
 11
166.95415
 21
43.114033
  0
LINE
  8
ボルト／ビス
  6
CONTINUOUS
 10
166.95415
 20
43.114033
 11
166.95415
 21
43.847365
  0
LINE
  8
ボルト／ビス
  6
CONTINUOUS
 10
166.95415
 20
43.847365
 11
167.020815
 21
43.847365
  0
LINE
  8
ボルト／ビス
  6
CONTINUOUS
 10
167.020815
 20
43.114033
 11
167.020815
 21
43.847365
  0
LINE
  8
ボルト／ビス
  6
CONTINUOUS
 10
166.920815
 20
43.1807
 11
166.95415
 21
43.1807
  0
LINE
  8
ボルト／ビス
  6
CONTINUOUS
 10
166.920815
 20
43.1807
 11
166.920815
 21
43.7807
  0
LINE
  8
ボルト／ビス
  6
CONTINUOUS
 10
166.920815
 20
43.7807
 11
166.95415
 21
43.7807
  0
LINE
  8
ボルト／ビス
  6
CONTINUOUS
 62
    64
 10
166.720815
 20
43.320325
 11
166.73249
 21
43.28825
  0
ARC
  8
ボルト／ビス
  6
CONTINUOUS
 62
    64
 10
166.825795
 20
43.336362
 40
0.104978
 50
152.721967
 51
180.0
  0
ARC
  8
ボルト／ビス
  6
CONTINUOUS
 62
    64
 10
167.123219
 20
43.4807
 40
0.402402
 50
166.165002
 51
193.834985
  0
LINE
  8
ボルト／ビス
  6
CONTINUOUS
 62
    64
 10
166.720815
 20
43.641075
 11
166.73249
 21
43.67315
  0
ARC
  8
ボルト／ビス
  6
CONTINUOUS
 62
    64
 10
166.825795
 20
43.625037
 40
0.104978
 50
180.0
 51
207.278033
  0
LINE
  8
ボルト／ビス
  6
CONTINUOUS
 62
    64
 10
166.720815
 20
43.320325
 11
166.720815
 21
43.641075
  0
LINE
  8
ボルト／ビス
  6
CONTINUOUS
 62
    64
 10
166.73249
 20
43.67315
 11
166.85415
 21
43.67315
  0
LINE
  8
ボルト／ビス
  6
CONTINUOUS
 62
    64
 10
166.73249
 20
43.576925
 11
166.85415
 21
43.576925
  0
LINE
  8
ボルト／ビス
  6
CONTINUOUS
 62
    64
 10
166.73249
 20
43.28825
 11
166.85415
 21
43.28825
  0
LINE
  8
ボルト／ビス
  6
CONTINUOUS
 62
    64
 10
166.73249
 20
43.384475
 11
166.85415
 21
43.384475
  0
LINE
  8
ボルト／ビス
  6
CONTINUOUS
 10
166.85415
 20
43.28825
 11
166.85415
 21
43.67315
  0
LINE
  8
ボルト／ビス
  6
CONTINUOUS
 10
166.85415
 20
43.2807
 11
166.920815
 21
43.2807
  0
LINE
  8
ボルト／ビス
  6
CONTINUOUS
 10
166.85415
 20
43.2807
 11
166.85415
 21
43.6807
  0
LINE
  8
ボルト／ビス
  6
CONTINUOUS
 10
166.85415
 20
43.6807
 11
166.920815
 21
43.6807
  0
ENDBLK
  0
ENDSEC
  0
SECTION
  2
ENTITIES
  0
POLYLINE
  8
通り芯
  6
CONTINUOUS
 66
     1
 70
     1
  0
VERTEX
  8
通り芯
 10
-210.0
 20
-148.5
  0
VERTEX
  8
通り芯
 10
210.0
 20
-148.5
  0
VERTEX
  8
通り芯
 10
210.0
 20
148.5
  0
VERTEX
  8
通り芯
 10
-210.0
 20
148.5
  0
SEQEND
  0
INSERT
  2
*GRP_0001
  8
型材断面
  6
CONTINUOUS
 10
0.0
 20
0.0
  0
LINE
  8
型材断面
  6
DASHDOT
 10
175.164313
 20
22.814033
 11
-122.51245
 21
22.814033
  0
LINE
  8
型材断面
  6
DASHDOT
 10
175.164313
 20
32.814033
 11
-122.51245
 21
32.814033
  0
LINE
  8
型材断面
  6
DASHDOT
 10
175.164313
 20
42.814033
 11
-122.51245
 21
42.814033
  0
LINE
  8
型材断面
  6
DOT
 10
-23.76245
 20
22.814033
 11
-23.76245
 21
42.814033
  0
LINE
  8
型材断面
  6
DOT
 10
-21.26245
 20
22.814033
 11
-21.26245
 21
42.814033
  0
LINE
  8
型材断面
  6
DASHDOT
 10
-22.51245
 20
-77.836442
 11
-22.51245
 21
42.814033
  0
LINE
  8
型材断面
  6
DASHDOT
 10
-122.51245
 20
-77.836442
 11
-122.51245
 21
42.814033
  0
LINE
  8
型材断面
  6
DASHDOT
 10
77.48755
 20
-77.836442
 11
77.48755
 21
42.814033
  0
LINE
  8
型材断面
  6
CONTINUOUS
 10
-105.845783
 20
45.444162
 11
-107.341413
 21
48.03467
  0
LINE
  8
型材断面
  6
CONTINUOUS
 10
-105.845783
 20
45.444162
 11
-104.350152
 21
48.03467
  0
LINE
  8
型材断面
  6
CONTINUOUS
 10
-104.350152
 20
48.03467
 11
-107.341413
 21
48.03467
  0
LINE
  8
型材断面
  6
CONTINUOUS
 10
-163.364657
 20
87.32138
 11
-164.860287
 21
84.730873
  0
LINE
  8
型材断面
  6
CONTINUOUS
 10
-163.364657
 20
87.32138
 11
-161.869027
 21
84.730873
  0
LINE
  8
型材断面
  6
CONTINUOUS
 10
-161.869027
 20
84.730873
 11
-164.860287
 21
84.730873
  0
LINE
  8
型材断面
  6
CONTINUOUS
 10
-169.387245
 20
83.792277
 11
-123.145468
 21
83.792277
  0
LINE
  8
型材断面
  6
CONTINUOUS
 10
60.820882
 20
45.444162
 11
62.316512
 21
48.03467
  0
LINE
  8
型材断面
  6
CONTINUOUS
 10
60.820882
 20
45.444162
 11
59.325252
 21
48.03467
  0
LINE
  8
型材断面
  6
CONTINUOUS
 10
59.325252
 20
48.03467
 11
62.316512
 21
48.03467
  0
LINE
  8
型材断面
  6
CONTINUOUS
 10
-125.14258
 20
32.814033
 11
-127.733087
 21
34.309663
  0
LINE
  8
型材断面
  6
CONTINUOUS
 10
-125.14258
 20
32.814033
 11
-127.733087
 21
31.318403
  0
LINE
  8
型材断面
  6
CONTINUOUS
 10
-127.733087
 20
31.318403
 11
-127.733087
 21
34.309663
  0
LINE
  8
型材断面
  6
CONTINUOUS
 10
-22.51245
 20
45.44416
 11
-24.00808
 21
48.034668
  0
LINE
  8
型材断面
  6
CONTINUOUS
 10
-22.51245
 20
45.44416
 11
-21.01682
 21
48.034668
  0
LINE
  8
型材断面
  6
CONTINUOUS
 10
-21.01682
 20
48.034668
 11
-24.00808
 21
48.034668
  0
LINE
  8
型材断面
  6
CONTINUOUS
 10
-105.845783
 20
20.183902
 11
-107.341413
 21
17.593395
  0
LINE
  8
型材断面
  6
CONTINUOUS
 10
-105.845783
 20
20.183902
 11
-104.350152
 21
17.593395
  0
LINE
  8
型材断面
  6
CONTINUOUS
 10
-104.350152
 20
17.593395
 11
-107.341413
 21
17.593395
  0
LINE
  8
型材断面
  6
CONTINUOUS
 10
60.820882
 20
20.183902
 11
62.316512
 21
17.593395
  0
LINE
  8
型材断面
  6
CONTINUOUS
 10
60.820882
 20
20.183902
 11
59.325252
 21
17.593395
  0
LINE
  8
型材断面
  6
CONTINUOUS
 10
59.325252
 20
17.593395
 11
62.316512
 21
17.593395
  0
LINE
  8
型材断面
  6
CONTINUOUS
 10
-22.51245
 20
20.183905
 11
-24.00808
 21
17.593397
  0
LINE
  8
型材断面
  6
CONTINUOUS
 10
-22.51245
 20
20.183905
 11
-21.01682
 21
17.593397
  0
LINE
  8
型材断面
  6
CONTINUOUS
 10
-21.01682
 20
17.593397
 11
-24.00808
 21
17.593397
  0
LINE
  8
型材断面
  6
CONTINUOUS
 10
80.11768
 20
32.814033
 11
82.708187
 21
34.309663
  0
LINE
  8
型材断面
  6
CONTINUOUS
 10
80.11768
 20
32.814033
 11
82.708187
 21
31.318403
  0
LINE
  8
型材断面
  6
CONTINUOUS
 10
82.708187
 20
31.318403
 11
82.708187
 21
34.309663
  0
LINE
  8
型材断面
  6
CONTINUOUS
 10
-169.387245
 20
77.384073
 11
-123.145468
 21
77.384073
  0
LINE
  8
型材断面
  6
CONTINUOUS
 10
169.5541
 20
20.65722
 11
169.1041
 21
20.65722
  0
LINE
  8
型材断面
  6
CONTINUOUS
 62
    47
 10
169.1041
 20
20.20722
 11
168.6041
 21
20.20722
  0
LINE
  8
型材断面
  6
CONTINUOUS
 62
    47
 10
168.6041
 20
20.20722
 11
168.020815
 21
22.081677
  0
LINE
  8
型材断面
  6
CONTINUOUS
 10
168.6041
 20
20.20722
 11
168.6041
 21
32.814033
  0
LINE
  8
型材断面
  6
CONTINUOUS
 10
169.5541
 20
20.65722
 11
169.5541
 21
32.814033
  0
LINE
  8
型材断面
  6
CONTINUOUS
 10
169.5541
 20
44.970845
 11
169.1041
 21
44.970845
  0
LINE
  8
型材断面
  6
CONTINUOUS
 62
    47
 10
169.1041
 20
45.420845
 11
168.6041
 21
45.420845
  0
LINE
  8
型材断面
  6
CONTINUOUS
 62
    47
 10
168.6041
 20
45.420845
 11
168.020815
 21
43.546387
  0
LINE
  8
型材断面
  6
CONTINUOUS
 10
168.6041
 20
45.420845
 11
168.6041
 21
32.814033
  0
LINE
  8
型材断面
  6
CONTINUOUS
 10
169.5541
 20
44.970845
 11
169.5541
 21
32.814033
  0
LINE
  8
型材断面
  6
CONTINUOUS
 10
79.644362
 20
-72.742897
 11
79.644362
 21
-72.292897
  0
LINE
  8
型材断面
  6
CONTINUOUS
 62
    47
 10
80.094362
 20
-72.292897
 11
80.094362
 21
-71.792897
  0
LINE
  8
型材断面
  6
CONTINUOUS
 62
    47
 10
80.094362
 20
-71.792897
 11
78.219905
 21
-71.209613
  0
LINE
  8
型材断面
  6
CONTINUOUS
 10
80.094362
 20
-71.792897
 11
-22.51245
 21
-71.792897
  0
LINE
  8
型材断面
  6
CONTINUOUS
 10
79.644362
 20
-72.742897
 11
-22.51245
 21
-72.742897
  0
LINE
  8
型材断面
  6
CONTINUOUS
 10
-124.669262
 20
-72.742897
 11
-124.669262
 21
-72.292897
  0
LINE
  8
型材断面
  6
CONTINUOUS
 62
    47
 10
-125.119262
 20
-72.292897
 11
-125.119262
 21
-71.792897
  0
LINE
  8
型材断面
  6
CONTINUOUS
 62
    47
 10
-125.119262
 20
-71.792897
 11
-123.244805
 21
-71.209613
  0
LINE
  8
型材断面
  6
CONTINUOUS
 10
-125.119262
 20
-71.792897
 11
-22.51245
 21
-71.792897
  0
LINE
  8
型材断面
  6
CONTINUOUS
 10
-124.669262
 20
-72.742897
 11
-22.51245
 21
-72.742897
  0
LINE
  8
型材断面
  6
CONTINUOUS
 10
79.554218
 20
20.747365
 11
80.094362
 21
20.20722
  0
LINE
  8
型材断面
  6
CONTINUOUS
 10
80.094362
 20
20.20722
 11
80.094362
 21
32.814033
  0
LINE
  8
型材断面
  6
CONTINUOUS
 10
80.094362
 20
20.20722
 11
-22.51245
 21
20.20722
  0
LINE
  8
型材断面
  6
CONTINUOUS
 10
79.554218
 20
44.8807
 11
80.094362
 21
45.420845
  0
LINE
  8
型材断面
  6
CONTINUOUS
 10
80.094362
 20
45.420845
 11
80.094362
 21
32.814033
  0
LINE
  8
型材断面
  6
CONTINUOUS
 10
80.094362
 20
45.420845
 11
-22.51245
 21
45.420845
  0
LINE
  8
型材断面
  6
CONTINUOUS
 10
-124.579118
 20
44.8807
 11
-125.119262
 21
45.420845
  0
LINE
  8
型材断面
  6
CONTINUOUS
 10
-125.119262
 20
45.420845
 11
-125.119262
 21
32.814033
  0
LINE
  8
型材断面
  6
CONTINUOUS
 10
-125.119262
 20
45.420845
 11
-22.51245
 21
45.420845
  0
LINE
  8
型材断面
  6
CONTINUOUS
 10
-124.579118
 20
20.747365
 11
-125.119262
 21
20.20722
  0
LINE
  8
型材断面
  6
CONTINUOUS
 10
-125.119262
 20
20.20722
 11
-125.119262
 21
32.814033
  0
LINE
  8
型材断面
  6
CONTINUOUS
 10
-125.119262
 20
20.20722
 11
-22.51245
 21
20.20722
  0
LINE
  8
型材断面
  6
DOT
 10
-90.57356
 20
22.814033
 11
-90.57356
 21
42.814033
  0
LINE
  8
型材断面
  6
DASHDOT
 10
-89.32356
 20
22.814033
 11
-89.32356
 21
42.814033
  0
LINE
  8
型材断面
  6
DOT
 10
-88.07356
 20
22.814033
 11
-88.07356
 21
42.814033
  0
LINE
  8
型材断面
  6
DOT
 10
-57.168005
 20
22.814033
 11
-57.168005
 21
42.814033
  0
LINE
  8
型材断面
  6
DOT
 10
-54.668005
 20
22.814033
 11
-54.668005
 21
42.814033
  0
LINE
  8
型材断面
  6
DASHDOT
 10
-55.918005
 20
22.814033
 11
-55.918005
 21
42.814033
  0
LINE
  8
型材断面
  6
DOT
 10
45.54866
 20
22.814033
 11
45.54866
 21
42.814033
  0
LINE
  8
型材断面
  6
DASHDOT
 10
44.29866
 20
22.814033
 11
44.29866
 21
42.814033
  0
LINE
  8
型材断面
  6
DOT
 10
43.04866
 20
22.814033
 11
43.04866
 21
42.814033
  0
LINE
  8
型材断面
  6
DOT
 10
12.143105
 20
22.814033
 11
12.143105
 21
42.814033
  0
LINE
  8
型材断面
  6
DOT
 10
9.643105
 20
22.814033
 11
9.643105
 21
42.814033
  0
LINE
  8
型材断面
  6
DASHDOT
 10
10.893105
 20
22.814033
 11
10.893105
 21
42.814033
  0
LINE
  8
ガラス
  6
CONTINUOUS
 10
142.88432
 20
-87.823622
 11
142.88432
 21
-68.49029
  0
LINE
  8
ガラス
  6
CONTINUOUS
 10
142.88432
 20
-87.823622
 11
110.578652
 21
-87.823622
  0
LINE
  8
ガラス
  6
CONTINUOUS
 10
110.578652
 20
-87.823622
 11
110.578652
 21
-68.49029
  0
LINE
  8
ガラス
  6
CONTINUOUS
 10
142.88432
 20
-68.49029
 11
110.578652
 21
-68.49029
  0
TEXT
  7
TextStyle03
  8
文字
  6
CONTINUOUS
 10
-160.55
 20
84.95
  1
は排水穴位置を示す
 40
3.0
 72
     5
 11
-130.55
 21
84.95
  0
TEXT
  7
TextStyle03
  8
文字
  6
CONTINUOUS
 10
124.05
 20
-81.275
  1
網入り6.8t
 40
3.0
 72
     5
 11
140.7375
 21
-81.275
  0
TEXT
  7
TextStyle03
  8
文字
  6
CONTINUOUS
 10
130.725
 20
-85.95
  1
×６枚
 40
3.0
 72
     5
 11
140.475
 21
-85.95
  0
TEXT
  7
TextStyle03
  8
文字
  6
CONTINUOUS
 10
-143.55
 20
11.275
  1
アンカーピッチ
 40
3.0
 50
90.0
 72
     5
 11
-143.55
 21
34.525
  0
TEXT
  7
TextStyle03
  8
文字
  6
CONTINUOUS
 10
-109.05
 20
79.95
  1
アンカーピッチ
 40
3.0
 72
     5
 11
-85.8
 21
79.95
  0
TEXT
  7
TextStyle03
  8
文字
  6
CONTINUOUS
 10
-164.275
 20
78.325
  1
アンカー数量　２２ヶ所
 40
3.0
 72
     5
 11
-127.525
 21
78.325
  0
TEXT
  7
TextStyle03
  8
文字
  6
CONTINUOUS
 10
78.1
 20
125.25
  1
シリーズ：ＳＴＤＫＬ
 40
5.0
 72
     5
 11
133.725
 21
125.25
  0
TEXT
  7
TextStyle03
  8
文字
  6
CONTINUOUS
 10
78.1
 20
119.625
  1
　　　　　（固定）600×6000タイプ
 40
5.0
 72
     5
 11
170.2875
 21
119.625
  0
TEXT
  7
TextStyle03
  8
文字
  6
CONTINUOUS
 10
78.1
 20
114.0
  1
図面名　：外観姿図
 40
5.0
 72
     5
 11
128.1
 21
114.0
  0
TEXT
  7
TextStyle03
  8
文字
  6
CONTINUOUS
 10
78.1
 20
108.375
  1
　　　　　　
 40
5.0
 72
     5
 11
111.225
 21
108.375
  0
TEXT
  7
TextStyle03
  8
文字
  6
CONTINUOUS
 10
79.0
 20
103.225
  1
ＮＳコード：ＮＳＫＳＬ
 40
5.0
 72
     5
 11
140.25
 21
103.225
  0
INSERT
  2
*DIM_0002
  8
寸法
  6
CONTINUOUS
 10
0.0
 20
0.0
  0
INSERT
  2
*DIM_0003
  8
寸法
  6
CONTINUOUS
 10
0.0
 20
0.0
  0
INSERT
  2
*DIM_0004
  8
寸法
  6
CONTINUOUS
 10
0.0
 20
0.0
  0
INSERT
  2
*DIM_0005
  8
寸法
  6
CONTINUOUS
 10
0.0
 20
0.0
  0
INSERT
  2
*DIM_0006
  8
寸法
  6
CONTINUOUS
 10
0.0
 20
0.0
  0
INSERT
  2
*DIM_0007
  8
寸法
  6
CONTINUOUS
 10
0.0
 20
0.0
  0
INSERT
  2
*DIM_0008
  8
寸法
  6
CONTINUOUS
 10
0.0
 20
0.0
  0
INSERT
  2
*DIM_0009
  8
寸法
  6
CONTINUOUS
 10
0.0
 20
0.0
  0
INSERT
  2
*DIM_0010
  8
寸法
  6
CONTINUOUS
 10
0.0
 20
0.0
  0
INSERT
  2
*DIM_0011
  8
寸法
  6
CONTINUOUS
 10
0.0
 20
0.0
  0
INSERT
  2
*DIM_0012
  8
寸法
  6
CONTINUOUS
 10
0.0
 20
0.0
  0
INSERT
  2
*DIM_0013
  8
寸法
  6
CONTINUOUS
 10
0.0
 20
0.0
  0
INSERT
  2
*DIM_0015
  8
寸法
  6
CONTINUOUS
 10
0.0
 20
0.0
  0
INSERT
  2
*DIM_0016
  8
寸法
  6
CONTINUOUS
 10
0.0
 20
0.0
  0
INSERT
  2
*DIM_0017
  8
寸法
  6
CONTINUOUS
 10
0.0
 20
0.0
  0
INSERT
  2
*DIM_0018
  8
寸法
  6
CONTINUOUS
 10
0.0
 20
0.0
  0
INSERT
  2
*DIM_0019
  8
寸法
  6
CONTINUOUS
 10
0.0
 20
0.0
  0
INSERT
  2
*DIM_0020
  8
寸法
  6
CONTINUOUS
 10
0.0
 20
0.0
  0
INSERT
  2
*DIM_0021
  8
寸法
  6
CONTINUOUS
 10
0.0
 20
0.0
  0
INSERT
  2
*DIM_0022
  8
寸法
  6
CONTINUOUS
 10
0.0
 20
0.0
  0
INSERT
  2
*DIM_0023
  8
寸法
  6
CONTINUOUS
 10
0.0
 20
0.0
  0
INSERT
  2
*DIM_0024
  8
寸法
  6
CONTINUOUS
 10
0.0
 20
0.0
  0
INSERT
  2
*DIM_0025
  8
寸法
  6
CONTINUOUS
 10
0.0
 20
0.0
  0
LINE
  8
別途部材
  6
CONTINUOUS
 10
79.554218
 20
20.747365
 11
79.154218
 21
21.147365
  0
LINE
  8
別途部材
  6
CONTINUOUS
 10
77.48755
 20
22.814033
 11
69.428295
 21
30.87329
  0
LINE
  8
別途部材
  6
CONTINUOUS
 10
79.154218
 20
21.147365
 11
-22.51245
 21
21.147365
  0
LINE
  8
別途部材
  6
CONTINUOUS
 10
79.554218
 20
20.747365
 11
-22.51245
 21
20.747365
  0
LINE
  8
別途部材
  6
CONTINUOUS
 10
-124.579118
 20
20.747365
 11
-124.179118
 21
21.147365
  0
LINE
  8
別途部材
  6
CONTINUOUS
 10
-122.51245
 20
22.814033
 11
-114.453195
 21
30.87329
  0
LINE
  8
別途部材
  6
CONTINUOUS
 10
-124.179118
 20
21.147365
 11
-22.51245
 21
21.147365
  0
LINE
  8
別途部材
  6
CONTINUOUS
 10
-124.579118
 20
20.747365
 11
-22.51245
 21
20.747365
  0
LINE
  8
別途部材
  6
CONTINUOUS
 10
79.154218
 20
21.147365
 11
79.154218
 21
32.814033
  0
LINE
  8
別途部材
  6
CONTINUOUS
 10
79.554218
 20
20.747365
 11
79.554218
 21
32.814033
  0
LINE
  8
別途部材
  6
CONTINUOUS
 10
-124.579118
 20
20.747365
 11
-124.579118
 21
32.814033
  0
LINE
  8
別途部材
  6
CONTINUOUS
 10
-124.179118
 20
21.147365
 11
-124.179118
 21
32.814033
  0
LINE
  8
別途部材
  6
CONTINUOUS
 10
79.554218
 20
44.8807
 11
79.154218
 21
44.4807
  0
LINE
  8
別途部材
  6
CONTINUOUS
 10
77.48755
 20
42.814033
 11
69.428295
 21
34.754775
  0
LINE
  8
別途部材
  6
CONTINUOUS
 10
79.154218
 20
44.4807
 11
-22.51245
 21
44.4807
  0
LINE
  8
別途部材
  6
CONTINUOUS
 10
79.554218
 20
44.8807
 11
-22.51245
 21
44.8807
  0
LINE
  8
別途部材
  6
CONTINUOUS
 10
-124.579118
 20
44.8807
 11
-124.179118
 21
44.4807
  0
LINE
  8
別途部材
  6
CONTINUOUS
 10
-122.51245
 20
42.814033
 11
-114.453195
 21
34.754775
  0
LINE
  8
別途部材
  6
CONTINUOUS
 10
-124.179118
 20
44.4807
 11
-22.51245
 21
44.4807
  0
LINE
  8
別途部材
  6
CONTINUOUS
 10
-124.579118
 20
44.8807
 11
-22.51245
 21
44.8807
  0
LINE
  8
別途部材
  6
CONTINUOUS
 10
79.154218
 20
44.4807
 11
79.154218
 21
32.814033
  0
LINE
  8
別途部材
  6
CONTINUOUS
 10
79.554218
 20
44.8807
 11
79.554218
 21
32.814033
  0
LINE
  8
別途部材
  6
CONTINUOUS
 10
-124.579118
 20
44.8807
 11
-124.579118
 21
32.814033
  0
LINE
  8
別途部材
  6
CONTINUOUS
 10
-124.179118
 20
44.4807
 11
-124.179118
 21
32.814033
  0
LINE
  8
別途部材
  6
CONTINUOUS
 62
    96
 10
167.020815
 20
21.147365
 11
168.020815
 21
20.747365
  0
LINE
  8
別途部材
  6
CONTINUOUS
 62
    96
 10
167.020815
 20
21.147365
 11
167.020815
 21
32.814033
  0
LINE
  8
別途部材
  6
CONTINUOUS
 10
168.020815
 20
20.747365
 11
168.020815
 21
32.814033
  0
LINE
  8
別途部材
  6
CONTINUOUS
 62
    96
 10
167.020815
 20
44.4807
 11
168.020815
 21
44.8807
  0
LINE
  8
別途部材
  6
CONTINUOUS
 62
    96
 10
167.020815
 20
44.4807
 11
167.020815
 21
32.814033
  0
LINE
  8
別途部材
  6
CONTINUOUS
 10
168.020815
 20
44.8807
 11
168.020815
 21
32.814033
  0
ARC
  8
別途部材
  6
CONTINUOUS
 10
173.72915
 20
32.814033
 40
12.041667
 50
123.855033
 51
236.144967
  0
INSERT
  2
*GRP_0014
  8
別途部材
  6
CONTINUOUS
 10
0.0
 20
0.0
  0
INSERT
  2
*GRP_0026
  8
別途部材
  6
DOT
 10
0.0
 20
0.0
  0
INSERT
  2
*GRP_0027
  8
別途部材
  6
DOT
 10
0.0
 20
0.0
  0
INSERT
  2
*GRP_0028
  8
別途部材
  6
DOT
 10
0.0
 20
0.0
  0
INSERT
  2
*GRP_0029
  8
別途部材
  6
DOT
 10
0.0
 20
0.0
  0
LINE
  8
St
  6
CONTINUOUS
 62
    47
 10
169.1041
 20
20.20722
 11
169.1041
 21
32.814033
  0
LINE
  8
St
  6
CONTINUOUS
 62
    47
 10
169.1041
 20
45.420845
 11
169.1041
 21
32.814033
  0
LINE
  8
St
  6
CONTINUOUS
 62
    47
 10
80.094362
 20
-72.292897
 11
-22.51245
 21
-72.292897
  0
LINE
  8
St
  6
CONTINUOUS
 62
    47
 10
-125.119262
 20
-72.292897
 11
-22.51245
 21
-72.292897
  0
ENDSEC
  0
EOF
