  0
SECTION
  2
HEADER
  9
$EXTMIN
 10
-210.0
 20
-148.5
  9
$EXTMAX
 10
210.0
 20
148.5
  9
$PDMODE
 70
    32
  9
$PDSIZE
 40
1.5
  9
$LTSCALE
 40
10.0
  0
ENDSEC
  0
SECTION
  2
TABLES
  0
TABLE
  2
LTYPE
 70
    15
  0
LTYPE
  2
CONTINUOUS
 70
    64
  3
実線
 72
    65
 73
     0
 40
0.0
  0
LTYPE
  2
DASHED
 70
    64
  3
破線A
 72
    65
 73
     2
 40
0.6
 49
0.4
 49
-0.2
  0
LTYPE
  2
DASHEDX2
 70
    64
  3
破線B
 72
    65
 73
     2
 40
1.3
 49
0.9
 49
-0.4
  0
LTYPE
  2
DASHDOT
 70
    64
  3
１点鎖線A
 72
    65
 73
     4
 40
0.5375
 49
0.375
 49
-0.05
 49
0.0625
 49
-0.05
  0
LTYPE
  2
DASHDOTX2
 70
    64
  3
１点鎖線B
 72
    65
 73
     4
 40
1.075
 49
0.75
 49
-0.1
 49
0.125
 49
-0.1
  0
LTYPE
  2
DIVIDE2
 70
    64
  3
２点鎖線A
 72
    65
 73
     6
 40
0.5125
 49
0.3
 49
-0.0375
 49
0.05
 49
-0.0375
 49
0.05
 49
-0.0375
  0
LTYPE
  2
DIVIDE
 70
    64
  3
２点鎖線B
 72
    65
 73
     6
 40
1.05
 49
0.55
 49
-0.1
 49
0.1
 49
-0.1
 49
0.1
 49
-0.1
  0
LTYPE
  2
DOT
 70
    64
  3
点線A
 72
    65
 73
     2
 40
0.1125
 49
0.0625
 49
-0.05
  0
LTYPE
  2
DOTX2
 70
    64
  3
点線B
 72
    65
 73
     2
 40
0.275
 49
0.15
 49
-0.125
  0
LTYPE
  2
CONTINUOUS
 70
    64
  3
実線
 72
    65
 73
     0
 40
0.0
  0
LTYPE
  2
CONTINUOUS
 70
    64
  3
実線
 72
    65
 73
     0
 40
0.0
  0
LTYPE
  2
CONTINUOUS
 70
    64
  3
実線
 72
    65
 73
     0
 40
0.0
  0
LTYPE
  2
CONTINUOUS
 70
    64
  3
実線
 72
    65
 73
     0
 40
0.0
  0
LTYPE
  2
CONTINUOUS
 70
    64
  3
実線
 72
    65
 73
     0
 40
0.0
  0
LTYPE
  2
CONTINUOUS
 70
    64
  3
実線
 72
    65
 73
     0
 40
0.0
  0
ENDTAB
  0
TABLE
  2
LAYER
 70
    34
  0
LAYER
  2
通り芯
 70
     0
 62
    15
  6
CONTINUOUS
  0
LAYER
  2
補助線
 70
     0
 62
    16
  6
DOT
  0
LAYER
  2
躯体
 70
     0
 62
    31
  6
CONTINUOUS
  0
LAYER
  2
型材
 70
     0
 62
    32
  6
CONTINUOUS
  0
LAYER
  2
型材断面
 70
     0
 62
    47
  6
CONTINUOUS
  0
LAYER
  2
ガラス
 70
     0
 62
    48
  6
CONTINUOUS
  0
LAYER
  2
ゴム等
 70
     0
 62
    63
  6
CONTINUOUS
  0
LAYER
  2
ボルト／ビス
 70
     0
 62
    64
  6
CONTINUOUS
  0
LAYER
  2
文字
 70
     0
 62
    79
  6
CONTINUOUS
  0
LAYER
  2
寸法
 70
     0
 62
    80
  6
CONTINUOUS
  0
LAYER
  2
ﾊｯﾁﾝｸﾞ
 70
     0
 62
    95
  6
CONTINUOUS
  0
LAYER
  2
別途部材
 70
     0
 62
    96
  6
CONTINUOUS
  0
LAYER
  2
曲げ物
 70
     0
 62
   111
  6
CONTINUOUS
  0
LAYER
  2
鉄骨等
 70
     0
 62
   112
  6
CONTINUOUS
  0
LAYER
  2
St
 70
     0
 62
   127
  6
CONTINUOUS
  0
LAYER
  2
その他部品等
 70
     0
 62
   128
  6
CONTINUOUS
  0
LAYER
  2
ｶﾞｽｹｯﾄ
 70
     0
 62
   143
  6
CONTINUOUS
  0
LAYER
  2
ｽｹｯﾁ
 70
     0
 62
    14
  6
CONTINUOUS
  0
LAYER
  2
0
 70
     0
 62
    17
  6
CONTINUOUS
  0
LAYER
  2
1
 70
     0
 62
    30
  6
CONTINUOUS
  0
LAYER
  2
4
 70
     0
 62
    33
  6
CONTINUOUS
  0
LAYER
  2
ﾚｲﾔ3
 70
     0
 62
    46
  6
CONTINUOUS
  0
LAYER
  2
外形線
 70
     0
 62
    49
  6
CONTINUOUS
  0
LAYER
  2
部品
 70
     0
 62
    14
  6
CONTINUOUS
  0
LAYER
  2
サッシ芯
 70
     0
 62
    17
  6
DASHDOTX2
  0
LAYER
  2
寸法線
 70
     0
 62
    62
  6
CONTINUOUS
  0
LAYER
  2
姿図外形線
 70
     0
 62
    65
  6
CONTINUOUS
  0
LAYER
  2
姿補助線
 70
     0
 62
    30
  6
CONTINUOUS
  0
LAYER
  2
透視線
 70
     0
 62
    78
  6
DOT
  0
LAYER
  2
用紙
 70
     0
 62
    81
  6
CONTINUOUS
  0
LAYER
  2
実線図枠
 70
     0
 62
    94
  6
CONTINUOUS
  0
LAYER
  2
補助図枠
 70
     0
 62
    97
  6
CONTINUOUS
  0
LAYER
  2
建具記号
 70
     0
 62
   110
  6
CONTINUOUS
  0
LAYER
  2
補助文字
 70
     0
 62
   113
  6
CONTINUOUS
  0
ENDTAB
  0
TABLE
  2
STYLE
 70
    10
  0
STYLE
  2
STANDARD
 70
     0
 40
1.0
 41
1.0
 42
1.0
 50
0.0
 71
     0
  3
TXT
  4
BIGFONT
  0
STYLE
  2
TATE
 70
     4
 40
1.0
 41
1.0
 42
1.0
 50
0.0
 71
     0
  3
TXT
  4
BIGFONT
  0
STYLE
  2
TextStyle03
 70
     0
 40
1.0
 41
1.0
 42
1.0
 50
0.0
 71
     0
  3
MONOTXT
  4
BIGFONT
  0
STYLE
  2
TextStyle04
 70
     0
 40
1.0
 41
1.0
 42
1.0
 50
0.0
 71
     0
  3
MONOTXT
  4
BIGFONT
  0
STYLE
  2
TextStyle05
 70
     0
 40
1.0
 41
1.0
 42
1.0
 50
0.0
 71
     0
  3
MONOTXT
  4
BIGFONT
  0
STYLE
  2
TextStyle06
 70
     0
 40
1.0
 41
1.0
 42
1.0
 50
0.0
 71
     0
  3
MONOTXT
  4
BIGFONT
  0
STYLE
  2
TextStyle07
 70
     0
 40
1.0
 41
1.0
 42
1.0
 50
0.0
 71
     0
  3
MONOTXT
  4
BIGFONT
  0
STYLE
  2
TextStyle08
 70
     0
 40
1.0
 41
1.0
 42
1.0
 50
0.0
 71
     0
  3
MONOTXT
  4
BIGFONT
  0
STYLE
  2
TextStyle09
 70
     0
 40
1.0
 41
1.0
 42
1.0
 50
0.0
 71
     0
  3
MONOTXT
  4
BIGFONT
  0
STYLE
  2
TextStyle10
 70
     0
 40
1.0
 41
1.0
 42
1.0
 50
0.0
 71
     0
  3
MONOTXT
  4
BIGFONT
  0
ENDTAB
  0
ENDSEC
  0
SECTION
  2
BLOCKS
  0
BLOCK
  2
*GRP_0001
 70
    65
 10
0.0
 20
0.0
  0
LINE
  8
型材断面
  6
CONTINUOUS
 10
195.0
 20
133.5
 11
195.0
 21
-133.5
  0
LINE
  8
型材断面
  6
CONTINUOUS
 10
195.0
 20
-133.5
 11
-185.0
 21
-133.5
  0
LINE
  8
型材断面
  6
CONTINUOUS
 10
-185.0
 20
-133.5
 11
-185.0
 21
133.5
  0
LINE
  8
型材断面
  6
CONTINUOUS
 10
195.0
 20
133.5
 11
-185.0
 21
133.5
  0
LINE
  8
型材断面
  6
CONTINUOUS
 10
145.0
 20
-133.5
 11
145.0
 21
-118.5
  0
LINE
  8
型材断面
  6
CONTINUOUS
 10
195.0
 20
-118.5
 11
145.0
 21
-118.5
  0
ENDBLK
  0
BLOCK
  2
*DIM_0002
 70
    65
 10
0.0
 20
0.0
  0
LINE
  8
寸法
  6
BYBLOCK
 62
     0
 10
-17.566237
 20
-62.95793
 11
30.736745
 21
-62.95793
  0
LINE
  8
寸法
  6
BYBLOCK
 62
     0
 10
30.736745
 20
-79.624597
 11
30.736745
 21
-62.95793
  0
POINT
  8
寸法
 62
     0
 10
30.736745
 20
-62.95793
  0
TEXT
  7
TextStyle03
  8
寸法
  6
CONTINUOUS
 62
     0
 10
30.375
 20
-73.7375
  1
500
 40
3.0
 50
90.0
 72
     5
 11
30.375
 21
-68.8625
  0
ENDBLK
  0
BLOCK
  2
*DIM_0003
 70
    65
 10
0.0
 20
0.0
  0
LINE
  8
寸法
  6
BYBLOCK
 62
     0
 10
14.767095
 20
-29.63158
 11
-85.232905
 21
-29.63158
  0
POINT
  8
寸法
 62
     0
 10
14.767095
 20
-29.63158
  0
POINT
  8
寸法
 62
     0
 10
-85.232905
 20
-29.63158
  0
TEXT
  7
TextStyle03
  8
寸法
  6
CONTINUOUS
 62
     0
 10
-46.94375
 20
-29.275
  1
呼称寸法　3000
 40
3.0
 72
     5
 11
-23.50625
 21
-29.275
  0
ENDBLK
  0
BLOCK
  2
*DIM_0004
 70
    65
 10
0.0
 20
0.0
  0
LINE
  8
寸法
  6
BYBLOCK
 62
     0
 10
-68.566237
 20
-5.54017
 11
-68.566237
 21
-9.97829
  0
LINE
  8
寸法
  6
BYBLOCK
 62
     0
 10
-1.899572
 20
-5.54017
 11
-1.899572
 21
-9.97829
  0
LINE
  8
寸法
  6
BYBLOCK
 62
     0
 10
-68.566237
 20
-9.97829
 11
-1.899572
 21
-9.97829
  0
POINT
  8
寸法
 62
     0
 10
-68.566237
 20
-9.97829
  0
POINT
  8
寸法
 62
     0
 10
-1.899572
 20
-9.97829
  0
TEXT
  7
TextStyle03
  8
寸法
  6
CONTINUOUS
 62
     0
 10
-38.53125
 20
-9.625
  1
2000
 40
3.0
 72
     5
 11
-31.96875
 21
-9.625
  0
ENDBLK
  0
BLOCK
  2
*DIM_0005
 70
    65
 10
0.0
 20
0.0
  0
LINE
  8
寸法
  6
BYBLOCK
 62
     0
 10
52.136403
 20
64.756625
 11
51.39956
 21
64.756625
  0
LINE
  8
寸法
  6
BYBLOCK
 62
     0
 10
52.136403
 20
-1.910042
 11
51.39956
 21
-1.910042
  0
LINE
  8
寸法
  6
BYBLOCK
 62
     0
 10
51.39956
 20
64.756625
 11
51.39956
 21
-1.910042
  0
POINT
  8
寸法
 62
     0
 10
51.39956
 20
64.756625
  0
POINT
  8
寸法
 62
     0
 10
51.39956
 20
-1.910042
  0
TEXT
  7
TextStyle03
  8
寸法
  6
CONTINUOUS
 62
     0
 10
51.025
 20
19.68125
  1
呼称寸法　2000
 40
3.0
 50
90.0
 72
     5
 11
51.025
 21
43.11875
  0
ENDBLK
  0
BLOCK
  2
*DIM_0006
 70
    65
 10
0.0
 20
0.0
  0
LINE
  8
寸法
  6
BYBLOCK
 62
     0
 10
87.633692
 20
32.42329
 11
87.633692
 21
86.5884
  0
LINE
  8
寸法
  6
BYBLOCK
 62
     0
 10
104.30036
 20
86.5884
 11
87.633692
 21
86.5884
  0
POINT
  8
寸法
 62
     0
 10
104.30036
 20
86.5884
  0
POINT
  8
寸法
 62
     0
 10
87.633692
 20
86.5884
  0
TEXT
  7
TextStyle03
  8
寸法
  6
CONTINUOUS
 62
     0
 10
93.5375
 20
86.95
  1
500
 40
3.0
 72
     5
 11
98.4125
 21
86.95
  0
ENDBLK
  0
BLOCK
  2
*DIM_0007
 70
    65
 10
0.0
 20
0.0
  0
LINE
  8
寸法
  6
BYBLOCK
 62
     0
 10
104.30036
 20
67.42329
 11
104.30036
 21
86.5884
  0
LINE
  8
寸法
  6
BYBLOCK
 62
     0
 10
106.383642
 20
68.36344
 11
106.383642
 21
86.5884
  0
LINE
  8
寸法
  6
BYBLOCK
 62
     0
 10
104.30036
 20
86.5884
 11
106.383642
 21
86.5884
  0
POINT
  8
寸法
 62
     0
 10
104.30036
 20
86.5884
  0
POINT
  8
寸法
 62
     0
 10
106.383642
 20
86.5884
  0
TEXT
  7
TextStyle03
  8
寸法
  6
CONTINUOUS
 62
     0
 10
108.79375
 20
86.95
  1
62.5
 40
3.0
 72
     5
 11
115.35625
 21
86.95
  0
ENDBLK
  0
BLOCK
  2
*DIM_0008
 70
    65
 10
0.0
 20
0.0
  0
LINE
  8
寸法
  6
BYBLOCK
 62
     0
 10
104.883642
 20
67.36344
 11
51.39956
 21
67.36344
  0
LINE
  8
寸法
  6
BYBLOCK
 62
     0
 10
51.39956
 20
64.756625
 11
51.39956
 21
67.36344
  0
POINT
  8
寸法
 62
     0
 10
51.39956
 20
64.756625
  0
POINT
  8
寸法
 62
     0
 10
51.39956
 20
67.36344
  0
TEXT
  7
TextStyle03
  8
寸法
  6
CONTINUOUS
 62
     0
 10
51.0
 20
69.51875
  1
78.2
 40
3.0
 50
90.0
 72
     5
 11
51.0
 21
76.08125
  0
ENDBLK
  0
BLOCK
  2
*DIM_0009
 70
    65
 10
0.0
 20
0.0
  0
LINE
  8
寸法
  6
BYBLOCK
 62
     0
 10
104.883642
 20
-4.516855
 11
51.39956
 21
-4.516855
  0
LINE
  8
寸法
  6
BYBLOCK
 62
     0
 10
51.39956
 20
-1.910042
 11
51.39956
 21
-4.516855
  0
POINT
  8
寸法
 62
     0
 10
51.39956
 20
-1.910042
  0
POINT
  8
寸法
 62
     0
 10
51.39956
 20
-4.516855
  0
TEXT
  7
TextStyle03
  8
寸法
  6
CONTINUOUS
 62
     0
 10
51.0
 20
-13.25625
  1
78.2
 40
3.0
 50
90.0
 72
     5
 11
51.0
 21
-6.69375
  0
ENDBLK
  0
BLOCK
  2
*DIM_0010
 70
    65
 10
0.0
 20
0.0
  0
LINE
  8
寸法
  6
BYBLOCK
 62
     0
 10
17.433763
 20
-79.624597
 11
30.736745
 21
-79.624597
  0
LINE
  8
寸法
  6
BYBLOCK
 62
     0
 10
18.373907
 20
-81.707882
 11
30.736745
 21
-81.707882
  0
LINE
  8
寸法
  6
BYBLOCK
 62
     0
 10
30.736745
 20
-79.624597
 11
30.736745
 21
-81.707882
  0
POINT
  8
寸法
 62
     0
 10
30.736745
 20
-79.624597
  0
POINT
  8
寸法
 62
     0
 10
30.736745
 20
-81.707882
  0
TEXT
  7
TextStyle03
  8
寸法
  6
CONTINUOUS
 62
     0
 10
30.35
 20
-90.70625
  1
62.5
 40
3.0
 50
90.0
 72
     5
 11
30.35
 21
-84.14375
  0
ENDBLK
  0
BLOCK
  2
*DIM_0011
 70
    65
 10
0.0
 20
0.0
  0
LINE
  8
寸法
  6
BYBLOCK
 62
     0
 10
17.373907
 20
-80.207882
 11
17.373907
 21
-29.63158
  0
LINE
  8
寸法
  6
BYBLOCK
 62
     0
 10
14.767095
 20
-29.63158
 11
17.373907
 21
-29.63158
  0
POINT
  8
寸法
 62
     0
 10
14.767095
 20
-29.63158
  0
POINT
  8
寸法
 62
     0
 10
17.373907
 20
-29.63158
  0
TEXT
  7
TextStyle03
  8
寸法
  6
CONTINUOUS
 62
     0
 10
19.51875
 20
-29.275
  1
78.2
 40
3.0
 72
     5
 11
26.08125
 21
-29.275
  0
ENDBLK
  0
BLOCK
  2
*DIM_0012
 70
    65
 10
0.0
 20
0.0
  0
LINE
  8
寸法
  6
BYBLOCK
 62
     0
 10
-87.839718
 20
-80.207882
 11
-87.839718
 21
-29.63158
  0
LINE
  8
寸法
  6
BYBLOCK
 62
     0
 10
-85.232905
 20
-29.63158
 11
-87.839718
 21
-29.63158
  0
POINT
  8
寸法
 62
     0
 10
-85.232905
 20
-29.63158
  0
POINT
  8
寸法
 62
     0
 10
-87.839718
 20
-29.63158
  0
TEXT
  7
TextStyle03
  8
寸法
  6
CONTINUOUS
 62
     0
 10
-96.58125
 20
-29.275
  1
78.2
 40
3.0
 72
     5
 11
-90.01875
 21
-29.275
  0
ENDBLK
  0
BLOCK
  2
*GRP_0013
 70
    65
 10
0.0
 20
0.0
  0
LINE
  8
別途部材
  6
CONTINUOUS
 62
    96
 10
-86.89957
 20
-79.624597
 11
-87.29957
 21
-80.624597
  0
LINE
  8
別途部材
  6
CONTINUOUS
 62
    96
 10
-86.89957
 20
-79.624597
 11
-35.232905
 21
-79.624597
  0
LINE
  8
別途部材
  6
CONTINUOUS
 10
-87.29957
 20
-80.624597
 11
-35.232905
 21
-80.624597
  0
LINE
  8
別途部材
  6
CONTINUOUS
 10
-35.732905
 20
-79.624597
 11
-35.732905
 21
-61.95793
  0
LINE
  8
別途部材
  6
CONTINUOUS
 10
-38.732905
 20
-79.624597
 11
-38.732905
 21
-61.95793
  0
LINE
  8
別途部材
  6
CONTINUOUS
 10
-35.732905
 20
-61.95793
 11
-36.732905
 21
-62.95793
  0
LINE
  8
別途部材
  6
CONTINUOUS
 10
-39.732905
 20
-79.624597
 11
-39.732905
 21
-61.95793
  0
LINE
  8
別途部材
  6
CONTINUOUS
 10
-37.732905
 20
-62.95793
 11
-38.732905
 21
-61.95793
  0
LINE
  8
別途部材
  6
CONTINUOUS
 10
-39.732905
 20
-61.95793
 11
-40.732905
 21
-62.95793
  0
LINE
  8
別途部材
  6
CONTINUOUS
 10
-38.732905
 20
-61.95793
 11
-39.732905
 21
-61.95793
  0
LINE
  8
別途部材
  6
CONTINUOUS
 10
-35.732905
 20
-61.95793
 11
-35.232905
 21
-61.95793
  0
LINE
  8
別途部材
  6
CONTINUOUS
 10
-41.732905
 20
-62.95793
 11
-42.732905
 21
-61.95793
  0
LINE
  8
別途部材
  6
CONTINUOUS
 10
-43.732905
 20
-61.95793
 11
-44.732905
 21
-62.95793
  0
LINE
  8
別途部材
  6
CONTINUOUS
 10
-42.732905
 20
-61.95793
 11
-43.732905
 21
-61.95793
  0
LINE
  8
別途部材
  6
CONTINUOUS
 10
-37.732905
 20
-79.624597
 11
-37.732905
 21
-62.95793
  0
LINE
  8
別途部材
  6
CONTINUOUS
 10
-40.732905
 20
-79.624597
 11
-40.732905
 21
-62.95793
  0
LINE
  8
別途部材
  6
CONTINUOUS
 10
-41.732905
 20
-79.624597
 11
-41.732905
 21
-62.95793
  0
LINE
  8
別途部材
  6
CONTINUOUS
 10
-42.732905
 20
-79.624597
 11
-42.732905
 21
-61.95793
  0
LINE
  8
別途部材
  6
CONTINUOUS
 10
-43.732905
 20
-79.624597
 11
-43.732905
 21
-61.95793
  0
LINE
  8
別途部材
  6
CONTINUOUS
 10
-44.732905
 20
-79.624597
 11
-44.732905
 21
-62.95793
  0
LINE
  8
別途部材
  6
CONTINUOUS
 10
-45.732905
 20
-62.95793
 11
-46.732905
 21
-61.95793
  0
LINE
  8
別途部材
  6
CONTINUOUS
 10
-47.732905
 20
-61.95793
 11
-48.732905
 21
-62.95793
  0
LINE
  8
別途部材
  6
CONTINUOUS
 10
-46.732905
 20
-61.95793
 11
-47.732905
 21
-61.95793
  0
LINE
  8
別途部材
  6
CONTINUOUS
 10
-45.732905
 20
-79.624597
 11
-45.732905
 21
-62.95793
  0
LINE
  8
別途部材
  6
CONTINUOUS
 10
-46.732905
 20
-79.624597
 11
-46.732905
 21
-61.95793
  0
LINE
  8
別途部材
  6
CONTINUOUS
 10
-47.732905
 20
-79.624597
 11
-47.732905
 21
-61.95793
  0
LINE
  8
別途部材
  6
CONTINUOUS
 10
-48.732905
 20
-79.624597
 11
-48.732905
 21
-62.95793
  0
LINE
  8
別途部材
  6
CONTINUOUS
 10
-50.732905
 20
-79.624597
 11
-50.732905
 21
-61.95793
  0
LINE
  8
別途部材
  6
CONTINUOUS
 10
-51.732905
 20
-79.624597
 11
-51.732905
 21
-61.95793
  0
LINE
  8
別途部材
  6
CONTINUOUS
 10
-49.732905
 20
-62.95793
 11
-50.732905
 21
-61.95793
  0
LINE
  8
別途部材
  6
CONTINUOUS
 10
-51.732905
 20
-61.95793
 11
-52.732905
 21
-62.95793
  0
LINE
  8
別途部材
  6
CONTINUOUS
 10
-50.732905
 20
-61.95793
 11
-51.732905
 21
-61.95793
  0
LINE
  8
別途部材
  6
CONTINUOUS
 10
-49.732905
 20
-79.624597
 11
-49.732905
 21
-62.95793
  0
LINE
  8
別途部材
  6
CONTINUOUS
 10
-52.732905
 20
-79.624597
 11
-52.732905
 21
-62.95793
  0
LINE
  8
別途部材
  6
CONTINUOUS
 10
-48.732905
 20
-62.95793
 11
-49.732905
 21
-62.95793
  0
LINE
  8
別途部材
  6
CONTINUOUS
 10
-44.732905
 20
-62.95793
 11
-45.732905
 21
-62.95793
  0
LINE
  8
別途部材
  6
CONTINUOUS
 10
-40.732905
 20
-62.95793
 11
-41.732905
 21
-62.95793
  0
LINE
  8
別途部材
  6
CONTINUOUS
 10
-36.732905
 20
-79.624597
 11
-36.732905
 21
-62.95793
  0
LINE
  8
別途部材
  6
CONTINUOUS
 10
-37.732905
 20
-62.95793
 11
-36.732905
 21
-62.95793
  0
LINE
  8
別途部材
  6
CONTINUOUS
 10
-53.732905
 20
-62.95793
 11
-54.732905
 21
-61.95793
  0
LINE
  8
別途部材
  6
CONTINUOUS
 10
-55.732905
 20
-61.95793
 11
-56.732905
 21
-62.95793
  0
LINE
  8
別途部材
  6
CONTINUOUS
 10
-54.732905
 20
-61.95793
 11
-55.732905
 21
-61.95793
  0
LINE
  8
別途部材
  6
CONTINUOUS
 10
-53.732905
 20
-79.624597
 11
-53.732905
 21
-62.95793
  0
LINE
  8
別途部材
  6
CONTINUOUS
 10
-54.732905
 20
-79.624597
 11
-54.732905
 21
-61.95793
  0
LINE
  8
別途部材
  6
CONTINUOUS
 10
-55.732905
 20
-79.624597
 11
-55.732905
 21
-61.95793
  0
LINE
  8
別途部材
  6
CONTINUOUS
 10
-56.732905
 20
-79.624597
 11
-56.732905
 21
-62.95793
  0
LINE
  8
別途部材
  6
CONTINUOUS
 10
-57.732905
 20
-62.95793
 11
-58.732905
 21
-61.95793
  0
LINE
  8
別途部材
  6
CONTINUOUS
 10
-59.732905
 20
-61.95793
 11
-60.732905
 21
-62.95793
  0
LINE
  8
別途部材
  6
CONTINUOUS
 10
-58.732905
 20
-61.95793
 11
-59.732905
 21
-61.95793
  0
LINE
  8
別途部材
  6
CONTINUOUS
 10
-57.732905
 20
-79.624597
 11
-57.732905
 21
-62.95793
  0
LINE
  8
別途部材
  6
CONTINUOUS
 10
-58.732905
 20
-79.624597
 11
-58.732905
 21
-61.95793
  0
LINE
  8
別途部材
  6
CONTINUOUS
 10
-59.732905
 20
-79.624597
 11
-59.732905
 21
-61.95793
  0
LINE
  8
別途部材
  6
CONTINUOUS
 10
-60.732905
 20
-79.624597
 11
-60.732905
 21
-62.95793
  0
LINE
  8
別途部材
  6
CONTINUOUS
 10
-62.732905
 20
-79.624597
 11
-62.732905
 21
-61.95793
  0
LINE
  8
別途部材
  6
CONTINUOUS
 10
-63.732905
 20
-79.624597
 11
-63.732905
 21
-61.95793
  0
LINE
  8
別途部材
  6
CONTINUOUS
 10
-61.732905
 20
-62.95793
 11
-62.732905
 21
-61.95793
  0
LINE
  8
別途部材
  6
CONTINUOUS
 10
-63.732905
 20
-61.95793
 11
-64.732905
 21
-62.95793
  0
LINE
  8
別途部材
  6
CONTINUOUS
 10
-62.732905
 20
-61.95793
 11
-63.732905
 21
-61.95793
  0
LINE
  8
別途部材
  6
CONTINUOUS
 10
-61.732905
 20
-79.624597
 11
-61.732905
 21
-62.95793
  0
LINE
  8
別途部材
  6
CONTINUOUS
 10
-64.732905
 20
-79.624597
 11
-64.732905
 21
-62.95793
  0
LINE
  8
別途部材
  6
CONTINUOUS
 10
-60.732905
 20
-62.95793
 11
-61.732905
 21
-62.95793
  0
LINE
  8
別途部材
  6
CONTINUOUS
 10
-56.732905
 20
-62.95793
 11
-57.732905
 21
-62.95793
  0
LINE
  8
別途部材
  6
CONTINUOUS
 10
-52.732905
 20
-62.95793
 11
-53.732905
 21
-62.95793
  0
LINE
  8
別途部材
  6
CONTINUOUS
 10
-66.732905
 20
-79.624597
 11
-66.732905
 21
-61.95793
  0
LINE
  8
別途部材
  6
CONTINUOUS
 10
-67.732905
 20
-79.624597
 11
-67.732905
 21
-61.95793
  0
LINE
  8
別途部材
  6
CONTINUOUS
 10
-65.732905
 20
-62.95793
 11
-66.732905
 21
-61.95793
  0
LINE
  8
別途部材
  6
CONTINUOUS
 10
-67.732905
 20
-61.95793
 11
-68.732905
 21
-62.95793
  0
LINE
  8
別途部材
  6
CONTINUOUS
 10
-66.732905
 20
-61.95793
 11
-67.732905
 21
-61.95793
  0
LINE
  8
別途部材
  6
CONTINUOUS
 10
-65.732905
 20
-79.624597
 11
-65.732905
 21
-62.95793
  0
LINE
  8
別途部材
  6
CONTINUOUS
 10
-68.732905
 20
-79.624597
 11
-68.732905
 21
-62.95793
  0
LINE
  8
別途部材
  6
CONTINUOUS
 10
-64.732905
 20
-62.95793
 11
-65.732905
 21
-62.95793
  0
ARC
  8
別途部材
  6
CONTINUOUS
 10
-68.566237
 20
-79.624597
 40
16.666667
 50
90.572967
 51
180.0
  0
LINE
  8
別途部材
  6
CONTINUOUS
 62
    96
 10
16.433763
 20
-79.624597
 11
16.833763
 21
-80.624597
  0
LINE
  8
別途部材
  6
CONTINUOUS
 62
    96
 10
16.433763
 20
-79.624597
 11
-35.232905
 21
-79.624597
  0
LINE
  8
別途部材
  6
CONTINUOUS
 10
16.833763
 20
-80.624597
 11
-35.232905
 21
-80.624597
  0
LINE
  8
別途部材
  6
CONTINUOUS
 10
-34.732905
 20
-79.624597
 11
-34.732905
 21
-61.95793
  0
LINE
  8
別途部材
  6
CONTINUOUS
 10
-31.732905
 20
-79.624597
 11
-31.732905
 21
-61.95793
  0
LINE
  8
別途部材
  6
CONTINUOUS
 10
-34.732905
 20
-61.95793
 11
-33.732905
 21
-62.95793
  0
LINE
  8
別途部材
  6
CONTINUOUS
 10
-30.732905
 20
-79.624597
 11
-30.732905
 21
-61.95793
  0
LINE
  8
別途部材
  6
CONTINUOUS
 10
-32.732905
 20
-62.95793
 11
-31.732905
 21
-61.95793
  0
LINE
  8
別途部材
  6
CONTINUOUS
 10
-30.732905
 20
-61.95793
 11
-29.732905
 21
-62.95793
  0
LINE
  8
別途部材
  6
CONTINUOUS
 10
-31.732905
 20
-61.95793
 11
-30.732905
 21
-61.95793
  0
LINE
  8
別途部材
  6
CONTINUOUS
 10
-34.732905
 20
-61.95793
 11
-35.232905
 21
-61.95793
  0
LINE
  8
別途部材
  6
CONTINUOUS
 10
-28.732905
 20
-62.95793
 11
-27.732905
 21
-61.95793
  0
LINE
  8
別途部材
  6
CONTINUOUS
 10
-26.732905
 20
-61.95793
 11
-25.732905
 21
-62.95793
  0
LINE
  8
別途部材
  6
CONTINUOUS
 10
-27.732905
 20
-61.95793
 11
-26.732905
 21
-61.95793
  0
LINE
  8
別途部材
  6
CONTINUOUS
 10
-32.732905
 20
-79.624597
 11
-32.732905
 21
-62.95793
  0
LINE
  8
別途部材
  6
CONTINUOUS
 10
-29.732905
 20
-79.624597
 11
-29.732905
 21
-62.95793
  0
LINE
  8
別途部材
  6
CONTINUOUS
 10
-28.732905
 20
-79.624597
 11
-28.732905
 21
-62.95793
  0
LINE
  8
別途部材
  6
CONTINUOUS
 10
-27.732905
 20
-79.624597
 11
-27.732905
 21
-61.95793
  0
LINE
  8
別途部材
  6
CONTINUOUS
 10
-26.732905
 20
-79.624597
 11
-26.732905
 21
-61.95793
  0
LINE
  8
別途部材
  6
CONTINUOUS
 10
-25.732905
 20
-79.624597
 11
-25.732905
 21
-62.95793
  0
LINE
  8
別途部材
  6
CONTINUOUS
 10
-24.732905
 20
-62.95793
 11
-23.732905
 21
-61.95793
  0
LINE
  8
別途部材
  6
CONTINUOUS
 10
-22.732905
 20
-61.95793
 11
-21.732905
 21
-62.95793
  0
LINE
  8
別途部材
  6
CONTINUOUS
 10
-23.732905
 20
-61.95793
 11
-22.732905
 21
-61.95793
  0
LINE
  8
別途部材
  6
CONTINUOUS
 10
-24.732905
 20
-79.624597
 11
-24.732905
 21
-62.95793
  0
LINE
  8
別途部材
  6
CONTINUOUS
 10
-23.732905
 20
-79.624597
 11
-23.732905
 21
-61.95793
  0
LINE
  8
別途部材
  6
CONTINUOUS
 10
-22.732905
 20
-79.624597
 11
-22.732905
 21
-61.95793
  0
LINE
  8
別途部材
  6
CONTINUOUS
 10
-21.732905
 20
-79.624597
 11
-21.732905
 21
-62.95793
  0
LINE
  8
別途部材
  6
CONTINUOUS
 10
-19.732905
 20
-79.624597
 11
-19.732905
 21
-61.95793
  0
LINE
  8
別途部材
  6
CONTINUOUS
 10
-18.732905
 20
-79.624597
 11
-18.732905
 21
-61.95793
  0
LINE
  8
別途部材
  6
CONTINUOUS
 10
-20.732905
 20
-62.95793
 11
-19.732905
 21
-61.95793
  0
LINE
  8
別途部材
  6
CONTINUOUS
 10
-18.732905
 20
-61.95793
 11
-17.732905
 21
-62.95793
  0
LINE
  8
別途部材
  6
CONTINUOUS
 10
-19.732905
 20
-61.95793
 11
-18.732905
 21
-61.95793
  0
LINE
  8
別途部材
  6
CONTINUOUS
 10
-20.732905
 20
-79.624597
 11
-20.732905
 21
-62.95793
  0
LINE
  8
別途部材
  6
CONTINUOUS
 10
-17.732905
 20
-79.624597
 11
-17.732905
 21
-62.95793
  0
LINE
  8
別途部材
  6
CONTINUOUS
 10
-21.732905
 20
-62.95793
 11
-20.732905
 21
-62.95793
  0
LINE
  8
別途部材
  6
CONTINUOUS
 10
-25.732905
 20
-62.95793
 11
-24.732905
 21
-62.95793
  0
LINE
  8
別途部材
  6
CONTINUOUS
 10
-29.732905
 20
-62.95793
 11
-28.732905
 21
-62.95793
  0
LINE
  8
別途部材
  6
CONTINUOUS
 10
-33.732905
 20
-79.624597
 11
-33.732905
 21
-62.95793
  0
LINE
  8
別途部材
  6
CONTINUOUS
 10
-32.732905
 20
-62.95793
 11
-33.732905
 21
-62.95793
  0
LINE
  8
別途部材
  6
CONTINUOUS
 10
-16.732905
 20
-62.95793
 11
-15.732905
 21
-61.95793
  0
LINE
  8
別途部材
  6
CONTINUOUS
 10
-14.732905
 20
-61.95793
 11
-13.732905
 21
-62.95793
  0
LINE
  8
別途部材
  6
CONTINUOUS
 10
-15.732905
 20
-61.95793
 11
-14.732905
 21
-61.95793
  0
LINE
  8
別途部材
  6
CONTINUOUS
 10
-16.732905
 20
-79.624597
 11
-16.732905
 21
-62.95793
  0
LINE
  8
別途部材
  6
CONTINUOUS
 10
-15.732905
 20
-79.624597
 11
-15.732905
 21
-61.95793
  0
LINE
  8
別途部材
  6
CONTINUOUS
 10
-14.732905
 20
-79.624597
 11
-14.732905
 21
-61.95793
  0
LINE
  8
別途部材
  6
CONTINUOUS
 10
-13.732905
 20
-79.624597
 11
-13.732905
 21
-62.95793
  0
LINE
  8
別途部材
  6
CONTINUOUS
 10
-12.732905
 20
-62.95793
 11
-11.732905
 21
-61.95793
  0
LINE
  8
別途部材
  6
CONTINUOUS
 10
-10.732905
 20
-61.95793
 11
-9.732905
 21
-62.95793
  0
LINE
  8
別途部材
  6
CONTINUOUS
 10
-11.732905
 20
-61.95793
 11
-10.732905
 21
-61.95793
  0
LINE
  8
別途部材
  6
CONTINUOUS
 10
-12.732905
 20
-79.624597
 11
-12.732905
 21
-62.95793
  0
LINE
  8
別途部材
  6
CONTINUOUS
 10
-11.732905
 20
-79.624597
 11
-11.732905
 21
-61.95793
  0
LINE
  8
別途部材
  6
CONTINUOUS
 10
-10.732905
 20
-79.624597
 11
-10.732905
 21
-61.95793
  0
LINE
  8
別途部材
  6
CONTINUOUS
 10
-9.732905
 20
-79.624597
 11
-9.732905
 21
-62.95793
  0
LINE
  8
別途部材
  6
CONTINUOUS
 10
-7.732905
 20
-79.624597
 11
-7.732905
 21
-61.95793
  0
LINE
  8
別途部材
  6
CONTINUOUS
 10
-6.732905
 20
-79.624597
 11
-6.732905
 21
-61.95793
  0
LINE
  8
別途部材
  6
CONTINUOUS
 10
-8.732905
 20
-62.95793
 11
-7.732905
 21
-61.95793
  0
LINE
  8
別途部材
  6
CONTINUOUS
 10
-6.732905
 20
-61.95793
 11
-5.732905
 21
-62.95793
  0
LINE
  8
別途部材
  6
CONTINUOUS
 10
-7.732905
 20
-61.95793
 11
-6.732905
 21
-61.95793
  0
LINE
  8
別途部材
  6
CONTINUOUS
 10
-8.732905
 20
-79.624597
 11
-8.732905
 21
-62.95793
  0
LINE
  8
別途部材
  6
CONTINUOUS
 10
-5.732905
 20
-79.624597
 11
-5.732905
 21
-62.95793
  0
LINE
  8
別途部材
  6
CONTINUOUS
 10
-9.732905
 20
-62.95793
 11
-8.732905
 21
-62.95793
  0
LINE
  8
別途部材
  6
CONTINUOUS
 10
-13.732905
 20
-62.95793
 11
-12.732905
 21
-62.95793
  0
LINE
  8
別途部材
  6
CONTINUOUS
 10
-17.732905
 20
-62.95793
 11
-16.732905
 21
-62.95793
  0
LINE
  8
別途部材
  6
CONTINUOUS
 10
-3.732905
 20
-79.624597
 11
-3.732905
 21
-61.95793
  0
LINE
  8
別途部材
  6
CONTINUOUS
 10
-2.732905
 20
-79.624597
 11
-2.732905
 21
-61.95793
  0
LINE
  8
別途部材
  6
CONTINUOUS
 10
-4.732905
 20
-62.95793
 11
-3.732905
 21
-61.95793
  0
LINE
  8
別途部材
  6
CONTINUOUS
 10
-2.732905
 20
-61.95793
 11
-1.732905
 21
-62.95793
  0
LINE
  8
別途部材
  6
CONTINUOUS
 10
-3.732905
 20
-61.95793
 11
-2.732905
 21
-61.95793
  0
LINE
  8
別途部材
  6
CONTINUOUS
 10
-4.732905
 20
-79.624597
 11
-4.732905
 21
-62.95793
  0
LINE
  8
別途部材
  6
CONTINUOUS
 10
-1.732905
 20
-79.624597
 11
-1.732905
 21
-62.95793
  0
LINE
  8
別途部材
  6
CONTINUOUS
 10
-5.732905
 20
-62.95793
 11
-4.732905
 21
-62.95793
  0
ARC
  8
別途部材
  6
CONTINUOUS
 10
-1.899571
 20
-79.624597
 40
16.666667
 50
0.0
 51
89.427033
  0
ENDBLK
  0
BLOCK
  2
*DIM_0014
 70
    65
 10
0.0
 20
0.0
  0
LINE
  8
寸法
  6
BYBLOCK
 62
     0
 10
-88.232905
 20
8.08996
 11
-117.721983
 21
8.08996
  0
LINE
  8
寸法
  6
BYBLOCK
 62
     0
 10
-88.232905
 20
31.423293
 11
-117.721983
 21
31.423293
  0
LINE
  8
寸法
  6
BYBLOCK
 62
     0
 10
-117.721983
 20
8.08996
 11
-117.721983
 21
31.423293
  0
POINT
  8
寸法
 62
     0
 10
-117.721983
 20
8.08996
  0
POINT
  8
寸法
 62
     0
 10
-117.721983
 20
31.423293
  0
TEXT
  7
TextStyle03
  8
寸法
  6
CONTINUOUS
 62
     0
 10
-118.125
 20
17.3125
  1
700
 40
3.0
 50
90.0
 72
     5
 11
-118.125
 21
22.1875
  0
ENDBLK
  0
BLOCK
  2
*DIM_0015
 70
    65
 10
0.0
 20
0.0
  0
LINE
  8
寸法
  6
BYBLOCK
 62
     0
 10
-88.232905
 20
54.756625
 11
-117.721983
 21
54.756625
  0
LINE
  8
寸法
  6
BYBLOCK
 62
     0
 10
-117.721983
 20
31.423293
 11
-117.721983
 21
54.756625
  0
POINT
  8
寸法
 62
     0
 10
-117.721983
 20
54.756625
  0
TEXT
  7
TextStyle03
  8
寸法
  6
CONTINUOUS
 62
     0
 10
-118.125
 20
40.6375
  1
700
 40
3.0
 50
90.0
 72
     5
 11
-118.125
 21
45.5125
  0
ENDBLK
  0
BLOCK
  2
*DIM_0016
 70
    65
 10
0.0
 20
0.0
  0
LINE
  8
寸法
  6
BYBLOCK
 62
     0
 10
-75.232905
 20
67.756625
 11
-75.232905
 21
96.864697
  0
LINE
  8
寸法
  6
BYBLOCK
 62
     0
 10
-48.566237
 20
67.756625
 11
-48.566237
 21
96.864697
  0
LINE
  8
寸法
  6
BYBLOCK
 62
     0
 10
-75.232905
 20
96.864697
 11
-48.566237
 21
96.864697
  0
POINT
  8
寸法
 62
     0
 10
-75.232905
 20
96.864697
  0
POINT
  8
寸法
 62
     0
 10
-48.566237
 20
96.864697
  0
TEXT
  7
TextStyle03
  8
寸法
  6
CONTINUOUS
 62
     0
 10
-64.3625
 20
97.225
  1
800
 40
3.0
 72
     5
 11
-59.4875
 21
97.225
  0
ENDBLK
  0
BLOCK
  2
*DIM_0017
 70
    65
 10
0.0
 20
0.0
  0
LINE
  8
寸法
  6
BYBLOCK
 62
     0
 10
-21.899572
 20
67.756625
 11
-21.899572
 21
96.864697
  0
LINE
  8
寸法
  6
BYBLOCK
 62
     0
 10
-48.566237
 20
96.864697
 11
-21.899572
 21
96.864697
  0
POINT
  8
寸法
 62
     0
 10
-21.899572
 20
96.864697
  0
TEXT
  7
TextStyle03
  8
寸法
  6
CONTINUOUS
 62
     0
 10
-37.6875
 20
97.225
  1
800
 40
3.0
 72
     5
 11
-32.8125
 21
97.225
  0
ENDBLK
  0
BLOCK
  2
*DIM_0018
 70
    65
 10
0.0
 20
0.0
  0
LINE
  8
寸法
  6
BYBLOCK
 62
     0
 10
4.767095
 20
67.756625
 11
4.767095
 21
96.864697
  0
LINE
  8
寸法
  6
BYBLOCK
 62
     0
 10
-21.899572
 20
96.864697
 11
4.767095
 21
96.864697
  0
POINT
  8
寸法
 62
     0
 10
4.767095
 20
96.864697
  0
TEXT
  7
TextStyle03
  8
寸法
  6
CONTINUOUS
 62
     0
 10
-11.0125
 20
97.225
  1
800
 40
3.0
 72
     5
 11
-6.1375
 21
97.225
  0
ENDBLK
  0
BLOCK
  2
*DIM_0019
 70
    65
 10
0.0
 20
0.0
  0
LINE
  8
寸法
  6
CONTINUOUS
 10
109.952097
 20
-53.817922
 11
109.952097
 21
-43.819337
  0
LINE
  8
寸法
  6
CONTINUOUS
 10
142.328765
 20
-53.817922
 11
142.328765
 21
-43.819337
  0
LINE
  8
寸法
  6
CONTINUOUS
 10
109.952097
 20
-43.819337
 11
142.328765
 21
-43.819337
  0
POINT
  8
寸法
 10
109.952097
 20
-43.819337
  0
POINT
  8
寸法
 10
142.328765
 20
-43.819337
  0
TEXT
  7
TextStyle03
  8
寸法
  6
CONTINUOUS
 10
122.0
 20
-43.45
  1
971.3
 40
3.0
 72
     5
 11
130.25
 21
-43.45
  0
ENDBLK
  0
BLOCK
  2
*DIM_0020
 70
    65
 10
0.0
 20
0.0
  0
LINE
  8
寸法
  6
CONTINUOUS
 10
143.745255
 20
-87.823622
 11
152.665512
 21
-87.823622
  0
LINE
  8
寸法
  6
CONTINUOUS
 10
143.745255
 20
-55.373622
 11
152.665512
 21
-55.373622
  0
LINE
  8
寸法
  6
CONTINUOUS
 10
152.665512
 20
-87.823622
 11
152.665512
 21
-55.373622
  0
POINT
  8
寸法
 10
152.665512
 20
-87.823622
  0
POINT
  8
寸法
 10
152.665512
 20
-55.373622
  0
TEXT
  7
TextStyle03
  8
寸法
  6
CONTINUOUS
 10
152.275
 20
-75.725
  1
973.5
 40
3.0
 50
90.0
 72
     5
 11
152.275
 21
-67.475
  0
ENDBLK
  0
BLOCK
  2
*GRP_0021
 70
    65
 10
0.0
 20
0.0
  0
LINE
  8
ボルト／ビス
  6
CONTINUOUS
 10
-85.899572
 20
-79.624597
 11
-85.899572
 21
-79.15793
  0
LINE
  8
ボルト／ビス
  6
CONTINUOUS
 10
-86.26624
 20
-79.624597
 11
-86.26624
 21
-79.55793
  0
LINE
  8
ボルト／ビス
  6
CONTINUOUS
 10
-86.26624
 20
-79.55793
 11
-85.532905
 21
-79.55793
  0
LINE
  8
ボルト／ビス
  6
CONTINUOUS
 10
-85.532905
 20
-79.55793
 11
-85.532905
 21
-79.624597
  0
LINE
  8
ボルト／ビス
  6
CONTINUOUS
 10
-86.26624
 20
-79.624597
 11
-85.532905
 21
-79.624597
  0
LINE
  8
ボルト／ビス
  6
CONTINUOUS
 10
-86.199572
 20
-79.524597
 11
-86.199572
 21
-79.55793
  0
LINE
  8
ボルト／ビス
  6
CONTINUOUS
 10
-86.199572
 20
-79.524597
 11
-85.599572
 21
-79.524597
  0
LINE
  8
ボルト／ビス
  6
CONTINUOUS
 10
-85.599572
 20
-79.524597
 11
-85.599572
 21
-79.55793
  0
LINE
  8
ボルト／ビス
  6
CONTINUOUS
 62
    64
 10
-86.059947
 20
-79.324597
 11
-86.092022
 21
-79.336272
  0
ARC
  8
ボルト／ビス
  6
CONTINUOUS
 62
    64
 10
-86.043909
 20
-79.429576
 40
0.104978
 50
62.721967
 51
90.0
  0
ARC
  8
ボルト／ビス
  6
CONTINUOUS
 62
    64
 10
-85.899571
 20
-79.727
 40
0.402402
 50
76.165002
 51
103.834985
  0
LINE
  8
ボルト／ビス
  6
CONTINUOUS
 62
    64
 10
-85.739197
 20
-79.324597
 11
-85.707122
 21
-79.336272
  0
ARC
  8
ボルト／ビス
  6
CONTINUOUS
 62
    64
 10
-85.755234
 20
-79.429576
 40
0.104978
 50
90.0
 51
117.278033
  0
LINE
  8
ボルト／ビス
  6
CONTINUOUS
 62
    64
 10
-86.059947
 20
-79.324597
 11
-85.739197
 21
-79.324597
  0
LINE
  8
ボルト／ビス
  6
CONTINUOUS
 62
    64
 10
-85.707122
 20
-79.336272
 11
-85.707122
 21
-79.45793
  0
LINE
  8
ボルト／ビス
  6
CONTINUOUS
 62
    64
 10
-85.803348
 20
-79.336272
 11
-85.803348
 21
-79.45793
  0
LINE
  8
ボルト／ビス
  6
CONTINUOUS
 62
    64
 10
-86.092022
 20
-79.336272
 11
-86.092022
 21
-79.45793
  0
LINE
  8
ボルト／ビス
  6
CONTINUOUS
 62
    64
 10
-85.995798
 20
-79.336272
 11
-85.995798
 21
-79.45793
  0
LINE
  8
ボルト／ビス
  6
CONTINUOUS
 10
-86.092022
 20
-79.45793
 11
-85.707122
 21
-79.45793
  0
LINE
  8
ボルト／ビス
  6
CONTINUOUS
 10
-86.099572
 20
-79.45793
 11
-86.099572
 21
-79.524597
  0
LINE
  8
ボルト／ビス
  6
CONTINUOUS
 10
-86.099572
 20
-79.45793
 11
-85.699572
 21
-79.45793
  0
LINE
  8
ボルト／ビス
  6
CONTINUOUS
 10
-85.699572
 20
-79.45793
 11
-85.699572
 21
-79.524597
  0
ENDBLK
  0
BLOCK
  2
*GRP_0022
 70
    65
 10
0.0
 20
0.0
  0
LINE
  8
ボルト／ビス
  6
CONTINUOUS
 10
15.433763
 20
-79.624597
 11
15.433763
 21
-79.15793
  0
LINE
  8
ボルト／ビス
  6
CONTINUOUS
 10
15.067095
 20
-79.624597
 11
15.067095
 21
-79.55793
  0
LINE
  8
ボルト／ビス
  6
CONTINUOUS
 10
15.067095
 20
-79.55793
 11
15.80043
 21
-79.55793
  0
LINE
  8
ボルト／ビス
  6
CONTINUOUS
 10
15.80043
 20
-79.55793
 11
15.80043
 21
-79.624597
  0
LINE
  8
ボルト／ビス
  6
CONTINUOUS
 10
15.067095
 20
-79.624597
 11
15.80043
 21
-79.624597
  0
LINE
  8
ボルト／ビス
  6
CONTINUOUS
 10
15.133763
 20
-79.524597
 11
15.133763
 21
-79.55793
  0
LINE
  8
ボルト／ビス
  6
CONTINUOUS
 10
15.133763
 20
-79.524597
 11
15.733763
 21
-79.524597
  0
LINE
  8
ボルト／ビス
  6
CONTINUOUS
 10
15.733763
 20
-79.524597
 11
15.733763
 21
-79.55793
  0
LINE
  8
ボルト／ビス
  6
CONTINUOUS
 62
    64
 10
15.273387
 20
-79.324597
 11
15.241312
 21
-79.336272
  0
ARC
  8
ボルト／ビス
  6
CONTINUOUS
 62
    64
 10
15.289426
 20
-79.429576
 40
0.104978
 50
62.721967
 51
90.0
  0
ARC
  8
ボルト／ビス
  6
CONTINUOUS
 62
    64
 10
15.433764
 20
-79.727
 40
0.402402
 50
76.165002
 51
103.834985
  0
LINE
  8
ボルト／ビス
  6
CONTINUOUS
 62
    64
 10
15.594138
 20
-79.324597
 11
15.626212
 21
-79.336272
  0
ARC
  8
ボルト／ビス
  6
CONTINUOUS
 62
    64
 10
15.578101
 20
-79.429576
 40
0.104978
 50
90.0
 51
117.278033
  0
LINE
  8
ボルト／ビス
  6
CONTINUOUS
 62
    64
 10
15.273387
 20
-79.324597
 11
15.594138
 21
-79.324597
  0
LINE
  8
ボルト／ビス
  6
CONTINUOUS
 62
    64
 10
15.626212
 20
-79.336272
 11
15.626212
 21
-79.45793
  0
LINE
  8
ボルト／ビス
  6
CONTINUOUS
 62
    64
 10
15.529988
 20
-79.336272
 11
15.529988
 21
-79.45793
  0
LINE
  8
ボルト／ビス
  6
CONTINUOUS
 62
    64
 10
15.241312
 20
-79.336272
 11
15.241312
 21
-79.45793
  0
LINE
  8
ボルト／ビス
  6
CONTINUOUS
 62
    64
 10
15.337537
 20
-79.336272
 11
15.337537
 21
-79.45793
  0
LINE
  8
ボルト／ビス
  6
CONTINUOUS
 10
15.241312
 20
-79.45793
 11
15.626212
 21
-79.45793
  0
LINE
  8
ボルト／ビス
  6
CONTINUOUS
 10
15.233763
 20
-79.45793
 11
15.233763
 21
-79.524597
  0
LINE
  8
ボルト／ビス
  6
CONTINUOUS
 10
15.233763
 20
-79.45793
 11
15.633763
 21
-79.45793
  0
LINE
  8
ボルト／ビス
  6
CONTINUOUS
 10
15.633763
 20
-79.45793
 11
15.633763
 21
-79.524597
  0
ENDBLK
  0
BLOCK
  2
*GRP_0023
 70
    65
 10
0.0
 20
0.0
  0
LINE
  8
ボルト／ビス
  6
CONTINUOUS
 10
104.30036
 20
-2.57671
 11
103.833692
 21
-2.57671
  0
LINE
  8
ボルト／ビス
  6
CONTINUOUS
 10
104.30036
 20
-2.943378
 11
104.233692
 21
-2.943378
  0
LINE
  8
ボルト／ビス
  6
CONTINUOUS
 10
104.233692
 20
-2.943378
 11
104.233692
 21
-2.210042
  0
LINE
  8
ボルト／ビス
  6
CONTINUOUS
 10
104.233692
 20
-2.210042
 11
104.30036
 21
-2.210042
  0
LINE
  8
ボルト／ビス
  6
CONTINUOUS
 10
104.30036
 20
-2.943378
 11
104.30036
 21
-2.210042
  0
LINE
  8
ボルト／ビス
  6
CONTINUOUS
 10
104.20036
 20
-2.87671
 11
104.233692
 21
-2.87671
  0
LINE
  8
ボルト／ビス
  6
CONTINUOUS
 10
104.20036
 20
-2.87671
 11
104.20036
 21
-2.27671
  0
LINE
  8
ボルト／ビス
  6
CONTINUOUS
 10
104.20036
 20
-2.27671
 11
104.233692
 21
-2.27671
  0
LINE
  8
ボルト／ビス
  6
CONTINUOUS
 62
    64
 10
104.00036
 20
-2.737085
 11
104.012035
 21
-2.76916
  0
ARC
  8
ボルト／ビス
  6
CONTINUOUS
 62
    64
 10
104.105338
 20
-2.721045
 40
0.104978
 50
152.721967
 51
180.0
  0
ARC
  8
ボルト／ビス
  6
CONTINUOUS
 62
    64
 10
104.402762
 20
-2.576707
 40
0.402402
 50
166.165002
 51
193.834985
  0
LINE
  8
ボルト／ビス
  6
CONTINUOUS
 62
    64
 10
104.00036
 20
-2.416335
 11
104.012035
 21
-2.38426
  0
ARC
  8
ボルト／ビス
  6
CONTINUOUS
 62
    64
 10
104.105338
 20
-2.43237
 40
0.104978
 50
180.0
 51
207.278033
  0
LINE
  8
ボルト／ビス
  6
CONTINUOUS
 62
    64
 10
104.00036
 20
-2.737085
 11
104.00036
 21
-2.416335
  0
LINE
  8
ボルト／ビス
  6
CONTINUOUS
 62
    64
 10
104.012035
 20
-2.38426
 11
104.133692
 21
-2.38426
  0
LINE
  8
ボルト／ビス
  6
CONTINUOUS
 62
    64
 10
104.012035
 20
-2.480485
 11
104.133692
 21
-2.480485
  0
LINE
  8
ボルト／ビス
  6
CONTINUOUS
 62
    64
 10
104.012035
 20
-2.76916
 11
104.133692
 21
-2.76916
  0
LINE
  8
ボルト／ビス
  6
CONTINUOUS
 62
    64
 10
104.012035
 20
-2.672935
 11
104.133692
 21
-2.672935
  0
LINE
  8
ボルト／ビス
  6
CONTINUOUS
 10
104.133692
 20
-2.76916
 11
104.133692
 21
-2.38426
  0
LINE
  8
ボルト／ビス
  6
CONTINUOUS
 10
104.133692
 20
-2.77671
 11
104.20036
 21
-2.77671
  0
LINE
  8
ボルト／ビス
  6
CONTINUOUS
 10
104.133692
 20
-2.77671
 11
104.133692
 21
-2.37671
  0
LINE
  8
ボルト／ビス
  6
CONTINUOUS
 10
104.133692
 20
-2.37671
 11
104.20036
 21
-2.37671
  0
ENDBLK
  0
BLOCK
  2
*GRP_0024
 70
    65
 10
0.0
 20
0.0
  0
LINE
  8
ボルト／ビス
  6
CONTINUOUS
 10
104.30036
 20
65.42329
 11
103.833692
 21
65.42329
  0
LINE
  8
ボルト／ビス
  6
CONTINUOUS
 10
104.30036
 20
65.056623
 11
104.233692
 21
65.056623
  0
LINE
  8
ボルト／ビス
  6
CONTINUOUS
 10
104.233692
 20
65.056623
 11
104.233692
 21
65.789957
  0
LINE
  8
ボルト／ビス
  6
CONTINUOUS
 10
104.233692
 20
65.789957
 11
104.30036
 21
65.789957
  0
LINE
  8
ボルト／ビス
  6
CONTINUOUS
 10
104.30036
 20
65.056623
 11
104.30036
 21
65.789957
  0
LINE
  8
ボルト／ビス
  6
CONTINUOUS
 10
104.20036
 20
65.12329
 11
104.233692
 21
65.12329
  0
LINE
  8
ボルト／ビス
  6
CONTINUOUS
 10
104.20036
 20
65.12329
 11
104.20036
 21
65.72329
  0
LINE
  8
ボルト／ビス
  6
CONTINUOUS
 10
104.20036
 20
65.72329
 11
104.233692
 21
65.72329
  0
LINE
  8
ボルト／ビス
  6
CONTINUOUS
 62
    64
 10
104.00036
 20
65.262915
 11
104.012035
 21
65.23084
  0
ARC
  8
ボルト／ビス
  6
CONTINUOUS
 62
    64
 10
104.105338
 20
65.278955
 40
0.104978
 50
152.721967
 51
180.0
  0
ARC
  8
ボルト／ビス
  6
CONTINUOUS
 62
    64
 10
104.402762
 20
65.423293
 40
0.402402
 50
166.165002
 51
193.834985
  0
LINE
  8
ボルト／ビス
  6
CONTINUOUS
 62
    64
 10
104.00036
 20
65.583665
 11
104.012035
 21
65.61574
  0
ARC
  8
ボルト／ビス
  6
CONTINUOUS
 62
    64
 10
104.105338
 20
65.56763
 40
0.104978
 50
180.0
 51
207.278033
  0
LINE
  8
ボルト／ビス
  6
CONTINUOUS
 62
    64
 10
104.00036
 20
65.262915
 11
104.00036
 21
65.583665
  0
LINE
  8
ボルト／ビス
  6
CONTINUOUS
 62
    64
 10
104.012035
 20
65.61574
 11
104.133692
 21
65.61574
  0
LINE
  8
ボルト／ビス
  6
CONTINUOUS
 62
    64
 10
104.012035
 20
65.519515
 11
104.133692
 21
65.519515
  0
LINE
  8
ボルト／ビス
  6
CONTINUOUS
 62
    64
 10
104.012035
 20
65.23084
 11
104.133692
 21
65.23084
  0
LINE
  8
ボルト／ビス
  6
CONTINUOUS
 62
    64
 10
104.012035
 20
65.327065
 11
104.133692
 21
65.327065
  0
LINE
  8
ボルト／ビス
  6
CONTINUOUS
 10
104.133692
 20
65.23084
 11
104.133692
 21
65.61574
  0
LINE
  8
ボルト／ビス
  6
CONTINUOUS
 10
104.133692
 20
65.22329
 11
104.20036
 21
65.22329
  0
LINE
  8
ボルト／ビス
  6
CONTINUOUS
 10
104.133692
 20
65.22329
 11
104.133692
 21
65.62329
  0
LINE
  8
ボルト／ビス
  6
CONTINUOUS
 10
104.133692
 20
65.62329
 11
104.20036
 21
65.62329
  0
ENDBLK
  0
ENDSEC
  0
SECTION
  2
ENTITIES
  0
POLYLINE
  8
通り芯
  6
CONTINUOUS
 66
     1
 70
     1
  0
VERTEX
  8
通り芯
 10
-210.0
 20
-148.5
  0
VERTEX
  8
通り芯
 10
210.0
 20
-148.5
  0
VERTEX
  8
通り芯
 10
210.0
 20
148.5
  0
VERTEX
  8
通り芯
 10
-210.0
 20
148.5
  0
SEQEND
  0
INSERT
  2
*GRP_0001
  8
型材断面
  6
CONTINUOUS
 10
0.0
 20
0.0
  0
LINE
  8
型材断面
  6
DASHDOT
 10
14.767095
 20
64.756625
 11
14.767095
 21
-87.251428
  0
LINE
  8
型材断面
  6
DASHDOT
 10
-35.232905
 20
64.756625
 11
-35.232905
 21
-87.251428
  0
LINE
  8
型材断面
  6
DASHDOT
 10
-85.232905
 20
64.756625
 11
-85.232905
 21
-87.251428
  0
LINE
  8
型材断面
  6
DASHDOT
 10
112.443858
 20
-1.910042
 11
-85.232905
 21
-1.910042
  0
LINE
  8
型材断面
  6
DASHDOT
 10
112.443858
 20
31.423293
 11
-85.232905
 21
31.423293
  0
LINE
  8
型材断面
  6
DASHDOT
 10
112.443858
 20
64.756625
 11
-85.232905
 21
64.756625
  0
LINE
  8
型材断面
  6
CONTINUOUS
 10
-87.863035
 20
31.423293
 11
-90.453542
 21
32.918923
  0
LINE
  8
型材断面
  6
CONTINUOUS
 10
-87.863035
 20
31.423293
 11
-90.453542
 21
29.927663
  0
LINE
  8
型材断面
  6
CONTINUOUS
 10
-90.453542
 20
29.927663
 11
-90.453542
 21
32.918923
  0
LINE
  8
型材断面
  6
CONTINUOUS
 10
-126.085113
 20
109.263973
 11
-127.580743
 21
106.673465
  0
LINE
  8
型材断面
  6
CONTINUOUS
 10
-126.085113
 20
109.263973
 11
-124.589483
 21
106.673465
  0
LINE
  8
型材断面
  6
CONTINUOUS
 10
-124.589483
 20
106.673465
 11
-127.580743
 21
106.673465
  0
LINE
  8
型材断面
  6
CONTINUOUS
 10
-132.1077
 20
105.73487
 11
-85.865923
 21
105.73487
  0
LINE
  8
型材断面
  6
CONTINUOUS
 10
-68.566237
 20
-4.54017
 11
-70.061867
 21
-7.130678
  0
LINE
  8
型材断面
  6
CONTINUOUS
 10
-68.566237
 20
-4.54017
 11
-67.070608
 21
-7.130678
  0
LINE
  8
型材断面
  6
CONTINUOUS
 10
-67.070608
 20
-7.130678
 11
-70.061867
 21
-7.130678
  0
LINE
  8
型材断面
  6
CONTINUOUS
 10
-68.566237
 20
67.386755
 11
-70.061867
 21
69.977262
  0
LINE
  8
型材断面
  6
CONTINUOUS
 10
-68.566237
 20
67.386755
 11
-67.070608
 21
69.977262
  0
LINE
  8
型材断面
  6
CONTINUOUS
 10
-67.070608
 20
69.977262
 11
-70.061867
 21
69.977262
  0
LINE
  8
型材断面
  6
CONTINUOUS
 10
17.397225
 20
31.423293
 11
19.987732
 21
32.918923
  0
LINE
  8
型材断面
  6
CONTINUOUS
 10
17.397225
 20
31.423293
 11
19.987732
 21
29.927663
  0
LINE
  8
型材断面
  6
CONTINUOUS
 10
19.987732
 20
29.927663
 11
19.987732
 21
32.918923
  0
LINE
  8
型材断面
  6
CONTINUOUS
 10
-1.899572
 20
-4.54017
 11
-0.403942
 21
-7.130678
  0
LINE
  8
型材断面
  6
CONTINUOUS
 10
-1.899572
 20
-4.54017
 11
-3.395202
 21
-7.130678
  0
LINE
  8
型材断面
  6
CONTINUOUS
 10
-3.395202
 20
-7.130678
 11
-0.403942
 21
-7.130678
  0
LINE
  8
型材断面
  6
CONTINUOUS
 10
-1.899572
 20
67.386755
 11
-0.403942
 21
69.977262
  0
LINE
  8
型材断面
  6
CONTINUOUS
 10
-1.899572
 20
67.386755
 11
-3.395202
 21
69.977262
  0
LINE
  8
型材断面
  6
CONTINUOUS
 10
-3.395202
 20
69.977262
 11
-0.403942
 21
69.977262
  0
LINE
  8
型材断面
  6
DOT
 10
-85.232905
 20
32.673293
 11
-53.259573
 21
32.673293
  0
LINE
  8
型材断面
  6
DOT
 10
-85.232905
 20
30.173293
 11
-53.259573
 21
30.173293
  0
LINE
  8
型材断面
  6
DOT
 10
-17.206238
 20
32.673293
 11
14.767095
 21
32.673293
  0
LINE
  8
型材断面
  6
DOT
 10
-17.206238
 20
30.173293
 11
14.767095
 21
30.173293
  0
LINE
  8
型材断面
  6
DOT
 10
-19.706238
 20
32.673293
 11
-50.759573
 21
32.673293
  0
LINE
  8
型材断面
  6
DOT
 10
-19.706238
 20
30.173293
 11
-50.759573
 21
30.173293
  0
LINE
  8
型材断面
  6
CONTINUOUS
 10
-132.1077
 20
99.921045
 11
-85.865923
 21
99.921045
  0
LINE
  8
型材断面
  6
CONTINUOUS
 10
106.833642
 20
66.91344
 11
106.383642
 21
66.91344
  0
LINE
  8
型材断面
  6
CONTINUOUS
 62
    47
 10
106.383642
 20
67.36344
 11
105.883642
 21
67.36344
  0
LINE
  8
型材断面
  6
CONTINUOUS
 62
    47
 10
105.883642
 20
67.36344
 11
105.300358
 21
65.488983
  0
LINE
  8
型材断面
  6
CONTINUOUS
 10
105.883642
 20
67.36344
 11
105.883642
 21
31.423293
  0
LINE
  8
型材断面
  6
CONTINUOUS
 10
106.833642
 20
66.91344
 11
106.833642
 21
31.423293
  0
LINE
  8
型材断面
  6
CONTINUOUS
 10
106.833642
 20
-4.066855
 11
106.383642
 21
-4.066855
  0
LINE
  8
型材断面
  6
CONTINUOUS
 62
    47
 10
106.383642
 20
-4.516855
 11
105.883642
 21
-4.516855
  0
LINE
  8
型材断面
  6
CONTINUOUS
 62
    47
 10
105.883642
 20
-4.516855
 11
105.300358
 21
-2.642397
  0
LINE
  8
型材断面
  6
CONTINUOUS
 10
105.883642
 20
-4.516855
 11
105.883642
 21
31.423293
  0
LINE
  8
型材断面
  6
CONTINUOUS
 10
106.833642
 20
-4.066855
 11
106.833642
 21
31.423293
  0
LINE
  8
型材断面
  6
CONTINUOUS
 10
16.833763
 20
-3.97671
 11
17.373907
 21
-4.516855
  0
LINE
  8
型材断面
  6
CONTINUOUS
 10
17.373907
 20
-4.516855
 11
17.373907
 21
31.423293
  0
LINE
  8
型材断面
  6
CONTINUOUS
 10
16.923907
 20
-82.157882
 11
16.923907
 21
-81.707882
  0
LINE
  8
型材断面
  6
CONTINUOUS
 62
    47
 10
17.373907
 20
-81.707882
 11
17.373907
 21
-81.207882
  0
LINE
  8
型材断面
  6
CONTINUOUS
 62
    47
 10
17.373907
 20
-81.207882
 11
15.49945
 21
-80.624597
  0
LINE
  8
型材断面
  6
CONTINUOUS
 10
17.373907
 20
-4.516855
 11
-35.232905
 21
-4.51684
  0
LINE
  8
型材断面
  6
CONTINUOUS
 10
16.833763
 20
66.823295
 11
17.373907
 21
67.36344
  0
LINE
  8
型材断面
  6
CONTINUOUS
 10
17.373907
 20
67.36344
 11
17.373907
 21
31.423293
  0
LINE
  8
型材断面
  6
CONTINUOUS
 10
17.373907
 20
67.36344
 11
-35.232905
 21
67.363425
  0
LINE
  8
型材断面
  6
CONTINUOUS
 10
-87.299572
 20
66.823295
 11
-87.839718
 21
67.36344
  0
LINE
  8
型材断面
  6
CONTINUOUS
 10
-87.839718
 20
67.36344
 11
-87.839718
 21
31.423293
  0
LINE
  8
型材断面
  6
CONTINUOUS
 10
-87.839718
 20
67.36344
 11
-35.232905
 21
67.363425
  0
LINE
  8
型材断面
  6
CONTINUOUS
 10
-87.299572
 20
-3.97671
 11
-87.839718
 21
-4.516855
  0
LINE
  8
型材断面
  6
CONTINUOUS
 10
-87.839718
 20
-4.516855
 11
-87.839718
 21
31.423293
  0
LINE
  8
型材断面
  6
CONTINUOUS
 10
-87.839718
 20
-4.516855
 11
-35.232905
 21
-4.51684
  0
LINE
  8
型材断面
  6
CONTINUOUS
 10
17.373907
 20
-81.207882
 11
-35.232905
 21
-81.207882
  0
LINE
  8
型材断面
  6
CONTINUOUS
 10
16.923907
 20
-82.157882
 11
-35.232905
 21
-82.157882
  0
LINE
  8
型材断面
  6
CONTINUOUS
 10
-87.389718
 20
-82.157882
 11
-87.389718
 21
-81.707882
  0
LINE
  8
型材断面
  6
CONTINUOUS
 62
    47
 10
-87.839718
 20
-81.707882
 11
-87.839718
 21
-81.207882
  0
LINE
  8
型材断面
  6
CONTINUOUS
 62
    47
 10
-87.839718
 20
-81.207882
 11
-85.96526
 21
-80.624597
  0
LINE
  8
型材断面
  6
CONTINUOUS
 10
-87.839718
 20
-81.207882
 11
-35.232905
 21
-81.207882
  0
LINE
  8
型材断面
  6
CONTINUOUS
 10
-87.389718
 20
-82.157882
 11
-35.232905
 21
-82.157882
  0
LINE
  8
型材断面
  6
DASHDOT
 10
-52.082907
 20
-1.910042
 11
-52.082907
 21
64.756625
  0
LINE
  8
型材断面
  6
DOT
 10
-50.832907
 20
-1.910042
 11
-50.832907
 21
64.756625
  0
LINE
  8
型材断面
  6
DOT
 10
-53.332907
 20
-1.910042
 11
-53.332907
 21
64.756625
  0
LINE
  8
型材断面
  6
DASHDOT
 10
-18.382903
 20
-1.910042
 11
-18.382903
 21
64.756625
  0
LINE
  8
型材断面
  6
DOT
 10
-19.632903
 20
-1.910042
 11
-19.632903
 21
64.756625
  0
LINE
  8
型材断面
  6
DOT
 10
-17.132903
 20
-1.910042
 11
-17.132903
 21
64.756625
  0
LINE
  8
ガラス
  6
CONTINUOUS
 10
109.952097
 20
-87.823622
 11
109.952097
 21
-55.373622
  0
LINE
  8
ガラス
  6
CONTINUOUS
 10
142.328765
 20
-55.373622
 11
109.952097
 21
-55.373622
  0
LINE
  8
ガラス
  6
CONTINUOUS
 10
110.39543
 20
-87.823622
 11
142.328765
 21
-87.823622
  0
LINE
  8
ガラス
  6
CONTINUOUS
 10
142.328765
 20
-55.373622
 11
142.328765
 21
-87.823622
  0
TEXT
  7
TextStyle03
  8
文字
  6
CONTINUOUS
 10
-123.3
 20
106.85
  1
は排水穴位置を示す
 40
3.0
 72
     5
 11
-93.3
 21
106.85
  0
TEXT
  7
TextStyle03
  8
文字
  6
CONTINUOUS
 10
-127.025
 20
100.8
  1
アンカー数量　１４ヶ所
 40
3.0
 72
     5
 11
-90.275
 21
100.8
  0
TEXT
  7
TextStyle03
  8
文字
  6
CONTINUOUS
 10
124.05
 20
-81.275
  1
網入り6.8t
 40
3.0
 72
     5
 11
140.7375
 21
-81.275
  0
TEXT
  7
TextStyle03
  8
文字
  6
CONTINUOUS
 10
130.725
 20
-85.95
  1
×６枚
 40
3.0
 72
     5
 11
140.475
 21
-85.95
  0
TEXT
  7
TextStyle03
  8
文字
  6
CONTINUOUS
 10
-123.975
 20
2.025
  1
アンカーピッチ
 40
3.0
 50
90.0
 72
     5
 11
-123.975
 21
25.275
  0
TEXT
  7
TextStyle03
  8
文字
  6
CONTINUOUS
 10
-75.275
 20
102.15
  1
アンカーピッチ
 40
3.0
 72
     5
 11
-52.025
 21
102.15
  0
TEXT
  7
TextStyle03
  8
文字
  6
CONTINUOUS
 10
78.1
 20
125.25
  1
シリーズ：ＳＴＤＫＬ
 40
5.0
 72
     5
 11
133.725
 21
125.25
  0
TEXT
  7
TextStyle03
  8
文字
  6
CONTINUOUS
 10
78.1
 20
119.625
  1
　　　　　（固定）2000×3000タイプ
 40
5.0
 72
     5
 11
173.1
 21
119.625
  0
TEXT
  7
TextStyle03
  8
文字
  6
CONTINUOUS
 10
78.1
 20
114.0
  1
図面名　：外観姿図
 40
5.0
 72
     5
 11
128.1
 21
114.0
  0
TEXT
  7
TextStyle03
  8
文字
  6
CONTINUOUS
 10
78.1
 20
108.375
  1
　　　　　　
 40
5.0
 72
     5
 11
111.225
 21
108.375
  0
TEXT
  7
TextStyle03
  8
文字
  6
CONTINUOUS
 10
78.675
 20
103.55
  1
ＮＳコード：ＮＳＫＳＬ
 40
5.0
 72
     5
 11
139.925
 21
103.55
  0
INSERT
  2
*DIM_0002
  8
寸法
  6
CONTINUOUS
 10
0.0
 20
0.0
  0
INSERT
  2
*DIM_0003
  8
寸法
  6
CONTINUOUS
 10
0.0
 20
0.0
  0
INSERT
  2
*DIM_0004
  8
寸法
  6
CONTINUOUS
 10
0.0
 20
0.0
  0
INSERT
  2
*DIM_0005
  8
寸法
  6
CONTINUOUS
 10
0.0
 20
0.0
  0
INSERT
  2
*DIM_0006
  8
寸法
  6
CONTINUOUS
 10
0.0
 20
0.0
  0
INSERT
  2
*DIM_0007
  8
寸法
  6
CONTINUOUS
 10
0.0
 20
0.0
  0
INSERT
  2
*DIM_0008
  8
寸法
  6
CONTINUOUS
 10
0.0
 20
0.0
  0
INSERT
  2
*DIM_0009
  8
寸法
  6
CONTINUOUS
 10
0.0
 20
0.0
  0
INSERT
  2
*DIM_0010
  8
寸法
  6
CONTINUOUS
 10
0.0
 20
0.0
  0
INSERT
  2
*DIM_0011
  8
寸法
  6
CONTINUOUS
 10
0.0
 20
0.0
  0
INSERT
  2
*DIM_0012
  8
寸法
  6
CONTINUOUS
 10
0.0
 20
0.0
  0
INSERT
  2
*DIM_0014
  8
寸法
  6
CONTINUOUS
 10
0.0
 20
0.0
  0
INSERT
  2
*DIM_0015
  8
寸法
  6
CONTINUOUS
 10
0.0
 20
0.0
  0
INSERT
  2
*DIM_0016
  8
寸法
  6
CONTINUOUS
 10
0.0
 20
0.0
  0
INSERT
  2
*DIM_0017
  8
寸法
  6
CONTINUOUS
 10
0.0
 20
0.0
  0
INSERT
  2
*DIM_0018
  8
寸法
  6
CONTINUOUS
 10
0.0
 20
0.0
  0
INSERT
  2
*DIM_0019
  8
寸法
  6
CONTINUOUS
 10
0.0
 20
0.0
  0
INSERT
  2
*DIM_0020
  8
寸法
  6
CONTINUOUS
 10
0.0
 20
0.0
  0
LINE
  8
別途部材
  6
CONTINUOUS
 10
16.833763
 20
-3.97671
 11
16.433763
 21
-3.57671
  0
LINE
  8
別途部材
  6
CONTINUOUS
 10
14.767095
 20
-1.910042
 11
6.70784
 21
6.149215
  0
LINE
  8
別途部材
  6
CONTINUOUS
 10
16.833763
 20
-3.97671
 11
16.833763
 21
31.423293
  0
LINE
  8
別途部材
  6
CONTINUOUS
 10
16.433763
 20
-3.57671
 11
16.433763
 21
31.423293
  0
LINE
  8
別途部材
  6
CONTINUOUS
 10
16.833763
 20
66.823295
 11
16.433763
 21
66.423295
  0
LINE
  8
別途部材
  6
CONTINUOUS
 10
14.767095
 20
64.756627
 11
6.70784
 21
56.69737
  0
LINE
  8
別途部材
  6
CONTINUOUS
 10
16.833763
 20
66.823295
 11
16.833763
 21
31.423293
  0
LINE
  8
別途部材
  6
CONTINUOUS
 10
16.433763
 20
66.423295
 11
16.433763
 21
31.423293
  0
LINE
  8
別途部材
  6
CONTINUOUS
 10
16.433763
 20
66.423295
 11
-35.232905
 21
66.423295
  0
LINE
  8
別途部材
  6
CONTINUOUS
 10
16.833763
 20
66.823295
 11
-35.232905
 21
66.823295
  0
LINE
  8
別途部材
  6
CONTINUOUS
 10
16.833763
 20
-3.97671
 11
-35.232905
 21
-3.97671
  0
LINE
  8
別途部材
  6
CONTINUOUS
 10
16.433763
 20
-3.57671
 11
-35.232905
 21
-3.57671
  0
LINE
  8
別途部材
  6
CONTINUOUS
 10
-87.299572
 20
-3.97671
 11
-86.899572
 21
-3.57671
  0
LINE
  8
別途部材
  6
CONTINUOUS
 10
-85.232905
 20
-1.910042
 11
-77.17365
 21
6.149215
  0
LINE
  8
別途部材
  6
CONTINUOUS
 10
-87.299572
 20
-3.97671
 11
-87.299572
 21
31.423293
  0
LINE
  8
別途部材
  6
CONTINUOUS
 10
-86.899572
 20
-3.57671
 11
-86.899572
 21
31.423293
  0
LINE
  8
別途部材
  6
CONTINUOUS
 10
-87.299572
 20
66.823295
 11
-86.899572
 21
66.423295
  0
LINE
  8
別途部材
  6
CONTINUOUS
 10
-85.232905
 20
64.756627
 11
-77.17365
 21
56.69737
  0
LINE
  8
別途部材
  6
CONTINUOUS
 10
-87.299572
 20
66.823295
 11
-87.299572
 21
31.423293
  0
LINE
  8
別途部材
  6
CONTINUOUS
 10
-86.899572
 20
66.423295
 11
-86.899572
 21
31.423293
  0
LINE
  8
別途部材
  6
CONTINUOUS
 10
-86.899572
 20
66.423295
 11
-35.232905
 21
66.423295
  0
LINE
  8
別途部材
  6
CONTINUOUS
 10
-87.299572
 20
66.823295
 11
-35.232905
 21
66.823295
  0
LINE
  8
別途部材
  6
CONTINUOUS
 10
-87.299572
 20
-3.97671
 11
-35.232905
 21
-3.97671
  0
LINE
  8
別途部材
  6
CONTINUOUS
 10
-86.899572
 20
-3.57671
 11
-35.232905
 21
-3.57671
  0
LINE
  8
別途部材
  6
CONTINUOUS
 62
    96
 10
104.30036
 20
-3.57671
 11
105.30036
 21
-3.97671
  0
ARC
  8
別途部材
  6
CONTINUOUS
 10
129.300356
 20
31.42329
 40
41.666665
 50
180.0
 51
233.130105
  0
ARC
  8
別途部材
  6
CONTINUOUS
 10
129.300356
 20
31.423291
 40
41.666665
 50
126.869895
 51
180.0
  0
LINE
  8
別途部材
  6
CONTINUOUS
 10
105.30036
 20
-3.97671
 11
105.30036
 21
31.42329
  0
LINE
  8
別途部材
  6
CONTINUOUS
 62
    96
 10
104.30036
 20
-3.57671
 11
104.30036
 21
31.42329
  0
LINE
  8
別途部材
  6
CONTINUOUS
 62
    96
 10
104.30036
 20
66.42329
 11
105.30036
 21
66.82329
  0
LINE
  8
別途部材
  6
CONTINUOUS
 10
105.30036
 20
66.82329
 11
105.30036
 21
31.42329
  0
LINE
  8
別途部材
  6
CONTINUOUS
 62
    96
 10
104.30036
 20
66.42329
 11
104.30036
 21
31.42329
  0
INSERT
  2
*GRP_0013
  8
別途部材
  6
CONTINUOUS
 10
0.0
 20
0.0
  0
INSERT
  2
*GRP_0021
  8
別途部材
  6
DOT
 10
0.0
 20
0.0
  0
INSERT
  2
*GRP_0022
  8
別途部材
  6
DOT
 10
0.0
 20
0.0
  0
INSERT
  2
*GRP_0023
  8
別途部材
  6
DOT
 10
0.0
 20
0.0
  0
INSERT
  2
*GRP_0024
  8
別途部材
  6
DOT
 10
0.0
 20
0.0
  0
LINE
  8
St
  6
CONTINUOUS
 62
    47
 10
106.383642
 20
67.36344
 11
106.383642
 21
31.423293
  0
LINE
  8
St
  6
CONTINUOUS
 62
    47
 10
106.383642
 20
-4.516855
 11
106.383642
 21
31.423293
  0
LINE
  8
St
  6
CONTINUOUS
 62
    47
 10
17.373907
 20
-81.707882
 11
-35.232905
 21
-81.707882
  0
LINE
  8
St
  6
CONTINUOUS
 62
    47
 10
-87.839718
 20
-81.707882
 11
-35.232905
 21
-81.707882
  0
ENDSEC
  0
EOF
