  0
SECTION
  2
HEADER
  9
$EXTMIN
 10
-210.0
 20
-148.5
  9
$EXTMAX
 10
210.0
 20
148.5
  9
$PDMODE
 70
    32
  9
$PDSIZE
 40
1.5
  9
$LTSCALE
 40
10.0
  0
ENDSEC
  0
SECTION
  2
TABLES
  0
TABLE
  2
LTYPE
 70
    15
  0
LTYPE
  2
CONTINUOUS
 70
    64
  3
実線
 72
    65
 73
     0
 40
0.0
  0
LTYPE
  2
DASHED
 70
    64
  3
破線A
 72
    65
 73
     2
 40
0.6
 49
0.4
 49
-0.2
  0
LTYPE
  2
DASHEDX2
 70
    64
  3
破線B
 72
    65
 73
     2
 40
1.3
 49
0.9
 49
-0.4
  0
LTYPE
  2
DASHDOT
 70
    64
  3
１点鎖線A
 72
    65
 73
     4
 40
0.5375
 49
0.375
 49
-0.05
 49
0.0625
 49
-0.05
  0
LTYPE
  2
DASHDOTX2
 70
    64
  3
１点鎖線B
 72
    65
 73
     4
 40
1.075
 49
0.75
 49
-0.1
 49
0.125
 49
-0.1
  0
LTYPE
  2
DIVIDE2
 70
    64
  3
２点鎖線A
 72
    65
 73
     6
 40
0.5125
 49
0.3
 49
-0.0375
 49
0.05
 49
-0.0375
 49
0.05
 49
-0.0375
  0
LTYPE
  2
DIVIDE
 70
    64
  3
２点鎖線B
 72
    65
 73
     6
 40
1.05
 49
0.55
 49
-0.1
 49
0.1
 49
-0.1
 49
0.1
 49
-0.1
  0
LTYPE
  2
DOT
 70
    64
  3
点線A
 72
    65
 73
     2
 40
0.1125
 49
0.0625
 49
-0.05
  0
LTYPE
  2
DOTX2
 70
    64
  3
点線B
 72
    65
 73
     2
 40
0.275
 49
0.15
 49
-0.125
  0
LTYPE
  2
CONTINUOUS
 70
    64
  3
実線
 72
    65
 73
     0
 40
0.0
  0
LTYPE
  2
CONTINUOUS
 70
    64
  3
実線
 72
    65
 73
     0
 40
0.0
  0
LTYPE
  2
CONTINUOUS
 70
    64
  3
実線
 72
    65
 73
     0
 40
0.0
  0
LTYPE
  2
CONTINUOUS
 70
    64
  3
実線
 72
    65
 73
     0
 40
0.0
  0
LTYPE
  2
CONTINUOUS
 70
    64
  3
実線
 72
    65
 73
     0
 40
0.0
  0
LTYPE
  2
CONTINUOUS
 70
    64
  3
実線
 72
    65
 73
     0
 40
0.0
  0
ENDTAB
  0
TABLE
  2
LAYER
 70
    34
  0
LAYER
  2
通り芯
 70
     0
 62
    15
  6
CONTINUOUS
  0
LAYER
  2
補助線
 70
     0
 62
    16
  6
DOT
  0
LAYER
  2
躯体
 70
     0
 62
    31
  6
CONTINUOUS
  0
LAYER
  2
型材
 70
     0
 62
    32
  6
CONTINUOUS
  0
LAYER
  2
型材断面
 70
     0
 62
    47
  6
CONTINUOUS
  0
LAYER
  2
ガラス
 70
     0
 62
    48
  6
CONTINUOUS
  0
LAYER
  2
ゴム等
 70
     0
 62
    63
  6
CONTINUOUS
  0
LAYER
  2
ボルト／ビス
 70
     0
 62
    64
  6
CONTINUOUS
  0
LAYER
  2
文字
 70
     0
 62
    79
  6
CONTINUOUS
  0
LAYER
  2
寸法
 70
     0
 62
    80
  6
CONTINUOUS
  0
LAYER
  2
ﾊｯﾁﾝｸﾞ
 70
     0
 62
    95
  6
CONTINUOUS
  0
LAYER
  2
別途部材
 70
     0
 62
    96
  6
CONTINUOUS
  0
LAYER
  2
曲げ物
 70
     0
 62
   111
  6
CONTINUOUS
  0
LAYER
  2
鉄骨等
 70
     0
 62
   112
  6
CONTINUOUS
  0
LAYER
  2
St
 70
     0
 62
   127
  6
CONTINUOUS
  0
LAYER
  2
その他部品等
 70
     0
 62
   128
  6
CONTINUOUS
  0
LAYER
  2
ｶﾞｽｹｯﾄ
 70
     0
 62
   143
  6
CONTINUOUS
  0
LAYER
  2
ｽｹｯﾁ
 70
     0
 62
    14
  6
CONTINUOUS
  0
LAYER
  2
0
 70
     0
 62
    17
  6
CONTINUOUS
  0
LAYER
  2
1
 70
     0
 62
    30
  6
CONTINUOUS
  0
LAYER
  2
4
 70
     0
 62
    33
  6
CONTINUOUS
  0
LAYER
  2
ﾚｲﾔ3
 70
     0
 62
    46
  6
CONTINUOUS
  0
LAYER
  2
外形線
 70
     0
 62
    49
  6
CONTINUOUS
  0
LAYER
  2
部品
 70
     0
 62
    14
  6
CONTINUOUS
  0
LAYER
  2
サッシ芯
 70
     0
 62
    17
  6
DASHDOTX2
  0
LAYER
  2
寸法線
 70
     0
 62
    62
  6
CONTINUOUS
  0
LAYER
  2
姿図外形線
 70
     0
 62
    65
  6
CONTINUOUS
  0
LAYER
  2
姿補助線
 70
     0
 62
    30
  6
CONTINUOUS
  0
LAYER
  2
透視線
 70
     0
 62
    78
  6
DOT
  0
LAYER
  2
用紙
 70
     0
 62
    81
  6
CONTINUOUS
  0
LAYER
  2
実線図枠
 70
     0
 62
    94
  6
CONTINUOUS
  0
LAYER
  2
補助図枠
 70
     0
 62
    97
  6
CONTINUOUS
  0
LAYER
  2
建具記号
 70
     0
 62
   110
  6
CONTINUOUS
  0
LAYER
  2
補助文字
 70
     0
 62
   113
  6
CONTINUOUS
  0
ENDTAB
  0
TABLE
  2
STYLE
 70
    10
  0
STYLE
  2
STANDARD
 70
     0
 40
1.0
 41
1.0
 42
1.0
 50
0.0
 71
     0
  3
TXT
  4
BIGFONT
  0
STYLE
  2
TATE
 70
     4
 40
1.0
 41
1.0
 42
1.0
 50
0.0
 71
     0
  3
TXT
  4
BIGFONT
  0
STYLE
  2
TextStyle03
 70
     0
 40
1.0
 41
1.0
 42
1.0
 50
0.0
 71
     0
  3
MONOTXT
  4
BIGFONT
  0
STYLE
  2
TextStyle04
 70
     0
 40
1.0
 41
1.0
 42
1.0
 50
0.0
 71
     0
  3
MONOTXT
  4
BIGFONT
  0
STYLE
  2
TextStyle05
 70
     0
 40
1.0
 41
1.0
 42
1.0
 50
0.0
 71
     0
  3
MONOTXT
  4
BIGFONT
  0
STYLE
  2
TextStyle06
 70
     0
 40
1.0
 41
1.0
 42
1.0
 50
0.0
 71
     0
  3
MONOTXT
  4
BIGFONT
  0
STYLE
  2
TextStyle07
 70
     0
 40
1.0
 41
1.0
 42
1.0
 50
0.0
 71
     0
  3
MONOTXT
  4
BIGFONT
  0
STYLE
  2
TextStyle08
 70
     0
 40
1.0
 41
1.0
 42
1.0
 50
0.0
 71
     0
  3
MONOTXT
  4
BIGFONT
  0
STYLE
  2
TextStyle09
 70
     0
 40
1.0
 41
1.0
 42
1.0
 50
0.0
 71
     0
  3
MONOTXT
  4
BIGFONT
  0
STYLE
  2
TextStyle10
 70
     0
 40
1.0
 41
1.0
 42
1.0
 50
0.0
 71
     0
  3
MONOTXT
  4
BIGFONT
  0
ENDTAB
  0
ENDSEC
  0
SECTION
  2
BLOCKS
  0
BLOCK
  2
*GRP_0001
 70
    65
 10
0.0
 20
0.0
  0
LINE
  8
型材断面
  6
CONTINUOUS
 10
195.0
 20
133.5
 11
195.0
 21
-133.5
  0
LINE
  8
型材断面
  6
CONTINUOUS
 10
195.0
 20
-133.5
 11
-185.0
 21
-133.5
  0
LINE
  8
型材断面
  6
CONTINUOUS
 10
-185.0
 20
-133.5
 11
-185.0
 21
133.5
  0
LINE
  8
型材断面
  6
CONTINUOUS
 10
195.0
 20
133.5
 11
-185.0
 21
133.5
  0
LINE
  8
型材断面
  6
CONTINUOUS
 10
145.0
 20
-133.5
 11
145.0
 21
-118.5
  0
LINE
  8
型材断面
  6
CONTINUOUS
 10
195.0
 20
-118.5
 11
145.0
 21
-118.5
  0
ENDBLK
  0
BLOCK
  2
*DIM_0002
 70
    65
 10
0.0
 20
0.0
  0
LINE
  8
寸法
  6
BYBLOCK
 62
     0
 10
-37.30308
 20
-62.95793
 11
10.999902
 21
-62.95793
  0
LINE
  8
寸法
  6
BYBLOCK
 62
     0
 10
10.999902
 20
-79.624597
 11
10.999902
 21
-62.95793
  0
POINT
  8
寸法
 62
     0
 10
10.999902
 20
-62.95793
  0
TEXT
  7
TextStyle03
  8
寸法
  6
CONTINUOUS
 62
     0
 10
10.65
 20
-73.7375
  1
500
 40
3.0
 50
90.0
 72
     5
 11
10.65
 21
-68.8625
  0
ENDBLK
  0
BLOCK
  2
*DIM_0003
 70
    65
 10
0.0
 20
0.0
  0
LINE
  8
寸法
  6
BYBLOCK
 62
     0
 10
32.39956
 20
64.756625
 11
31.662717
 21
64.756625
  0
LINE
  8
寸法
  6
BYBLOCK
 62
     0
 10
32.39956
 20
-1.910042
 11
31.662717
 21
-1.910042
  0
LINE
  8
寸法
  6
BYBLOCK
 62
     0
 10
31.662717
 20
64.756625
 11
31.662717
 21
-1.910042
  0
POINT
  8
寸法
 62
     0
 10
31.662717
 20
64.756625
  0
POINT
  8
寸法
 62
     0
 10
31.662717
 20
-1.910042
  0
TEXT
  7
TextStyle03
  8
寸法
  6
CONTINUOUS
 62
     0
 10
31.3
 20
19.68125
  1
呼称寸法　2000
 40
3.0
 50
90.0
 72
     5
 11
31.3
 21
43.11875
  0
ENDBLK
  0
BLOCK
  2
*DIM_0004
 70
    65
 10
0.0
 20
0.0
  0
LINE
  8
寸法
  6
BYBLOCK
 62
     0
 10
67.89685
 20
32.42329
 11
67.89685
 21
86.5884
  0
LINE
  8
寸法
  6
BYBLOCK
 62
     0
 10
84.563517
 20
86.5884
 11
67.89685
 21
86.5884
  0
POINT
  8
寸法
 62
     0
 10
84.563517
 20
86.5884
  0
POINT
  8
寸法
 62
     0
 10
67.89685
 20
86.5884
  0
TEXT
  7
TextStyle03
  8
寸法
  6
CONTINUOUS
 62
     0
 10
73.8125
 20
86.95
  1
500
 40
3.0
 72
     5
 11
78.6875
 21
86.95
  0
ENDBLK
  0
BLOCK
  2
*DIM_0005
 70
    65
 10
0.0
 20
0.0
  0
LINE
  8
寸法
  6
BYBLOCK
 62
     0
 10
-4.969747
 20
-29.63158
 11
-88.30308
 21
-29.63158
  0
POINT
  8
寸法
 62
     0
 10
-4.969747
 20
-29.63158
  0
POINT
  8
寸法
 62
     0
 10
-88.30308
 20
-29.63158
  0
TEXT
  7
TextStyle03
  8
寸法
  6
CONTINUOUS
 62
     0
 10
-58.34375
 20
-29.275
  1
呼称寸法　2500
 40
3.0
 72
     5
 11
-34.90625
 21
-29.275
  0
ENDBLK
  0
BLOCK
  2
*DIM_0006
 70
    65
 10
0.0
 20
0.0
  0
LINE
  8
寸法
  6
BYBLOCK
 62
     0
 10
-71.636413
 20
-5.54017
 11
-71.636413
 21
-10.057895
  0
LINE
  8
寸法
  6
BYBLOCK
 62
     0
 10
-21.636417
 20
-5.54017
 11
-21.636417
 21
-10.057895
  0
LINE
  8
寸法
  6
BYBLOCK
 62
     0
 10
-71.636413
 20
-10.057895
 11
-21.636417
 21
-10.057895
  0
POINT
  8
寸法
 62
     0
 10
-71.636413
 20
-10.057895
  0
POINT
  8
寸法
 62
     0
 10
-21.636417
 20
-10.057895
  0
TEXT
  7
TextStyle03
  8
寸法
  6
CONTINUOUS
 62
     0
 10
-49.93125
 20
-9.7
  1
1500
 40
3.0
 72
     5
 11
-43.36875
 21
-9.7
  0
ENDBLK
  0
BLOCK
  2
*DIM_0007
 70
    65
 10
0.0
 20
0.0
  0
LINE
  8
寸法
  6
BYBLOCK
 62
     0
 10
84.563517
 20
67.42329
 11
84.563517
 21
86.5884
  0
LINE
  8
寸法
  6
BYBLOCK
 62
     0
 10
86.6468
 20
68.36344
 11
86.6468
 21
86.5884
  0
LINE
  8
寸法
  6
BYBLOCK
 62
     0
 10
84.563517
 20
86.5884
 11
86.6468
 21
86.5884
  0
POINT
  8
寸法
 62
     0
 10
84.563517
 20
86.5884
  0
POINT
  8
寸法
 62
     0
 10
86.6468
 20
86.5884
  0
TEXT
  7
TextStyle03
  8
寸法
  6
CONTINUOUS
 62
     0
 10
89.06875
 20
86.95
  1
62.5
 40
3.0
 72
     5
 11
95.63125
 21
86.95
  0
ENDBLK
  0
BLOCK
  2
*DIM_0008
 70
    65
 10
0.0
 20
0.0
  0
LINE
  8
寸法
  6
BYBLOCK
 62
     0
 10
85.1468
 20
67.36344
 11
31.662717
 21
67.36344
  0
LINE
  8
寸法
  6
BYBLOCK
 62
     0
 10
31.662717
 20
64.756625
 11
31.662717
 21
67.36344
  0
POINT
  8
寸法
 62
     0
 10
31.662717
 20
64.756625
  0
POINT
  8
寸法
 62
     0
 10
31.662717
 20
67.36344
  0
TEXT
  7
TextStyle03
  8
寸法
  6
CONTINUOUS
 62
     0
 10
31.275
 20
69.51875
  1
78.2
 40
3.0
 50
90.0
 72
     5
 11
31.275
 21
76.08125
  0
ENDBLK
  0
BLOCK
  2
*DIM_0009
 70
    65
 10
0.0
 20
0.0
  0
LINE
  8
寸法
  6
BYBLOCK
 62
     0
 10
85.1468
 20
-4.516855
 11
31.662717
 21
-4.516855
  0
LINE
  8
寸法
  6
BYBLOCK
 62
     0
 10
31.662717
 20
-1.910042
 11
31.662717
 21
-4.516855
  0
POINT
  8
寸法
 62
     0
 10
31.662717
 20
-1.910042
  0
POINT
  8
寸法
 62
     0
 10
31.662717
 20
-4.516855
  0
TEXT
  7
TextStyle03
  8
寸法
  6
CONTINUOUS
 62
     0
 10
31.275
 20
-13.25625
  1
78.2
 40
3.0
 50
90.0
 72
     5
 11
31.275
 21
-6.69375
  0
ENDBLK
  0
BLOCK
  2
*DIM_0010
 70
    65
 10
0.0
 20
0.0
  0
LINE
  8
寸法
  6
BYBLOCK
 62
     0
 10
-2.30308
 20
-79.624597
 11
10.999902
 21
-79.624597
  0
LINE
  8
寸法
  6
BYBLOCK
 62
     0
 10
-1.362935
 20
-81.707882
 11
10.999902
 21
-81.707882
  0
LINE
  8
寸法
  6
BYBLOCK
 62
     0
 10
10.999902
 20
-79.624597
 11
10.999902
 21
-81.707882
  0
POINT
  8
寸法
 62
     0
 10
10.999902
 20
-79.624597
  0
POINT
  8
寸法
 62
     0
 10
10.999902
 20
-81.707882
  0
TEXT
  7
TextStyle03
  8
寸法
  6
CONTINUOUS
 62
     0
 10
10.625
 20
-90.70625
  1
62.5
 40
3.0
 50
90.0
 72
     5
 11
10.625
 21
-84.14375
  0
ENDBLK
  0
BLOCK
  2
*DIM_0011
 70
    65
 10
0.0
 20
0.0
  0
LINE
  8
寸法
  6
BYBLOCK
 62
     0
 10
-2.362935
 20
-80.207882
 11
-2.362935
 21
-29.63158
  0
LINE
  8
寸法
  6
BYBLOCK
 62
     0
 10
-4.969747
 20
-29.63158
 11
-2.362935
 21
-29.63158
  0
POINT
  8
寸法
 62
     0
 10
-4.969747
 20
-29.63158
  0
POINT
  8
寸法
 62
     0
 10
-2.362935
 20
-29.63158
  0
TEXT
  7
TextStyle03
  8
寸法
  6
CONTINUOUS
 62
     0
 10
-0.20625
 20
-29.275
  1
78.2
 40
3.0
 72
     5
 11
6.35625
 21
-29.275
  0
ENDBLK
  0
BLOCK
  2
*DIM_0012
 70
    65
 10
0.0
 20
0.0
  0
LINE
  8
寸法
  6
BYBLOCK
 62
     0
 10
-90.909895
 20
-80.207882
 11
-90.909895
 21
-29.63158
  0
LINE
  8
寸法
  6
BYBLOCK
 62
     0
 10
-88.30308
 20
-29.63158
 11
-90.909895
 21
-29.63158
  0
POINT
  8
寸法
 62
     0
 10
-88.30308
 20
-29.63158
  0
POINT
  8
寸法
 62
     0
 10
-90.909895
 20
-29.63158
  0
TEXT
  7
TextStyle03
  8
寸法
  6
CONTINUOUS
 62
     0
 10
-99.65625
 20
-29.275
  1
78.2
 40
3.0
 72
     5
 11
-93.09375
 21
-29.275
  0
ENDBLK
  0
BLOCK
  2
*GRP_0013
 70
    65
 10
0.0
 20
0.0
  0
LINE
  8
別途部材
  6
CONTINUOUS
 62
    96
 10
-89.969747
 20
-79.624597
 11
-90.369747
 21
-80.624597
  0
LINE
  8
別途部材
  6
CONTINUOUS
 10
-90.369747
 20
-80.624597
 11
-46.636413
 21
-80.624597
  0
LINE
  8
別途部材
  6
CONTINUOUS
 62
    96
 10
-89.969747
 20
-79.624597
 11
-46.636413
 21
-79.624597
  0
LINE
  8
別途部材
  6
CONTINUOUS
 10
-47.136413
 20
-79.624597
 11
-47.136413
 21
-61.95793
  0
LINE
  8
別途部材
  6
CONTINUOUS
 10
-50.136413
 20
-79.624597
 11
-50.136413
 21
-61.95793
  0
LINE
  8
別途部材
  6
CONTINUOUS
 10
-47.136413
 20
-61.95793
 11
-48.136413
 21
-62.95793
  0
LINE
  8
別途部材
  6
CONTINUOUS
 10
-51.136413
 20
-79.624597
 11
-51.136413
 21
-61.95793
  0
LINE
  8
別途部材
  6
CONTINUOUS
 10
-49.136413
 20
-62.95793
 11
-50.136413
 21
-61.95793
  0
LINE
  8
別途部材
  6
CONTINUOUS
 10
-51.136413
 20
-61.95793
 11
-52.136413
 21
-62.95793
  0
LINE
  8
別途部材
  6
CONTINUOUS
 10
-50.136413
 20
-61.95793
 11
-51.136413
 21
-61.95793
  0
LINE
  8
別途部材
  6
CONTINUOUS
 10
-53.136413
 20
-62.95793
 11
-54.136413
 21
-61.95793
  0
LINE
  8
別途部材
  6
CONTINUOUS
 10
-55.136413
 20
-61.95793
 11
-56.136413
 21
-62.95793
  0
LINE
  8
別途部材
  6
CONTINUOUS
 10
-54.136413
 20
-61.95793
 11
-55.136413
 21
-61.95793
  0
LINE
  8
別途部材
  6
CONTINUOUS
 10
-49.136413
 20
-79.624597
 11
-49.136413
 21
-62.95793
  0
LINE
  8
別途部材
  6
CONTINUOUS
 10
-52.136413
 20
-79.624597
 11
-52.136413
 21
-62.95793
  0
LINE
  8
別途部材
  6
CONTINUOUS
 10
-53.136413
 20
-79.624597
 11
-53.136413
 21
-62.95793
  0
LINE
  8
別途部材
  6
CONTINUOUS
 10
-54.136413
 20
-79.624597
 11
-54.136413
 21
-61.95793
  0
LINE
  8
別途部材
  6
CONTINUOUS
 10
-55.136413
 20
-79.624597
 11
-55.136413
 21
-61.95793
  0
LINE
  8
別途部材
  6
CONTINUOUS
 10
-56.136413
 20
-79.624597
 11
-56.136413
 21
-62.95793
  0
LINE
  8
別途部材
  6
CONTINUOUS
 10
-52.136413
 20
-62.95793
 11
-53.136413
 21
-62.95793
  0
LINE
  8
別途部材
  6
CONTINUOUS
 10
-48.136413
 20
-79.624597
 11
-48.136413
 21
-62.95793
  0
LINE
  8
別途部材
  6
CONTINUOUS
 10
-49.136413
 20
-62.95793
 11
-48.136413
 21
-62.95793
  0
LINE
  8
別途部材
  6
CONTINUOUS
 10
-47.136413
 20
-61.95793
 11
-46.136413
 21
-61.95793
  0
LINE
  8
別途部材
  6
CONTINUOUS
 10
-58.136413
 20
-79.624597
 11
-58.136413
 21
-61.95793
  0
LINE
  8
別途部材
  6
CONTINUOUS
 10
-59.136413
 20
-79.624597
 11
-59.136413
 21
-61.95793
  0
LINE
  8
別途部材
  6
CONTINUOUS
 10
-57.136413
 20
-62.95793
 11
-58.136413
 21
-61.95793
  0
LINE
  8
別途部材
  6
CONTINUOUS
 10
-59.136413
 20
-61.95793
 11
-60.136413
 21
-62.95793
  0
LINE
  8
別途部材
  6
CONTINUOUS
 10
-58.136413
 20
-61.95793
 11
-59.136413
 21
-61.95793
  0
LINE
  8
別途部材
  6
CONTINUOUS
 10
-61.136413
 20
-62.95793
 11
-62.136413
 21
-61.95793
  0
LINE
  8
別途部材
  6
CONTINUOUS
 10
-63.136413
 20
-61.95793
 11
-64.136413
 21
-62.95793
  0
LINE
  8
別途部材
  6
CONTINUOUS
 10
-62.136413
 20
-61.95793
 11
-63.136413
 21
-61.95793
  0
LINE
  8
別途部材
  6
CONTINUOUS
 10
-57.136413
 20
-79.624597
 11
-57.136413
 21
-62.95793
  0
LINE
  8
別途部材
  6
CONTINUOUS
 10
-60.136413
 20
-79.624597
 11
-60.136413
 21
-62.95793
  0
LINE
  8
別途部材
  6
CONTINUOUS
 10
-61.136413
 20
-79.624597
 11
-61.136413
 21
-62.95793
  0
LINE
  8
別途部材
  6
CONTINUOUS
 10
-62.136413
 20
-79.624597
 11
-62.136413
 21
-61.95793
  0
LINE
  8
別途部材
  6
CONTINUOUS
 10
-63.136413
 20
-79.624597
 11
-63.136413
 21
-61.95793
  0
LINE
  8
別途部材
  6
CONTINUOUS
 10
-64.136413
 20
-79.624597
 11
-64.136413
 21
-62.95793
  0
LINE
  8
別途部材
  6
CONTINUOUS
 10
-60.136413
 20
-62.95793
 11
-61.136413
 21
-62.95793
  0
LINE
  8
別途部材
  6
CONTINUOUS
 10
-57.136413
 20
-62.95793
 11
-56.136413
 21
-62.95793
  0
LINE
  8
別途部材
  6
CONTINUOUS
 10
-66.136413
 20
-79.624597
 11
-66.136413
 21
-61.95793
  0
LINE
  8
別途部材
  6
CONTINUOUS
 10
-67.136413
 20
-79.624597
 11
-67.136413
 21
-61.95793
  0
LINE
  8
別途部材
  6
CONTINUOUS
 10
-65.136413
 20
-62.95793
 11
-66.136413
 21
-61.95793
  0
LINE
  8
別途部材
  6
CONTINUOUS
 10
-67.136413
 20
-61.95793
 11
-68.136413
 21
-62.95793
  0
LINE
  8
別途部材
  6
CONTINUOUS
 10
-66.136413
 20
-61.95793
 11
-67.136413
 21
-61.95793
  0
LINE
  8
別途部材
  6
CONTINUOUS
 10
-69.136413
 20
-62.95793
 11
-70.136413
 21
-61.95793
  0
LINE
  8
別途部材
  6
CONTINUOUS
 10
-71.136413
 20
-61.95793
 11
-72.136413
 21
-62.95793
  0
LINE
  8
別途部材
  6
CONTINUOUS
 10
-70.136413
 20
-61.95793
 11
-71.136413
 21
-61.95793
  0
LINE
  8
別途部材
  6
CONTINUOUS
 10
-65.136413
 20
-79.624597
 11
-65.136413
 21
-62.95793
  0
LINE
  8
別途部材
  6
CONTINUOUS
 10
-68.136413
 20
-79.624597
 11
-68.136413
 21
-62.95793
  0
LINE
  8
別途部材
  6
CONTINUOUS
 10
-69.136413
 20
-79.624597
 11
-69.136413
 21
-62.95793
  0
LINE
  8
別途部材
  6
CONTINUOUS
 10
-70.136413
 20
-79.624597
 11
-70.136413
 21
-61.95793
  0
LINE
  8
別途部材
  6
CONTINUOUS
 10
-71.136413
 20
-79.624597
 11
-71.136413
 21
-61.95793
  0
LINE
  8
別途部材
  6
CONTINUOUS
 10
-72.136413
 20
-79.624597
 11
-72.136413
 21
-62.95793
  0
LINE
  8
別途部材
  6
CONTINUOUS
 10
-68.136413
 20
-62.95793
 11
-69.136413
 21
-62.95793
  0
LINE
  8
別途部材
  6
CONTINUOUS
 10
-65.136413
 20
-62.95793
 11
-64.136413
 21
-62.95793
  0
ARC
  8
別途部材
  6
CONTINUOUS
 10
-71.636413
 20
-79.624597
 40
16.666667
 50
91.719131
 51
180.0
  0
LINE
  8
別途部材
  6
CONTINUOUS
 62
    96
 10
-3.30308
 20
-79.624597
 11
-2.90308
 21
-80.624597
  0
LINE
  8
別途部材
  6
CONTINUOUS
 10
-2.90308
 20
-80.624597
 11
-46.636413
 21
-80.624597
  0
LINE
  8
別途部材
  6
CONTINUOUS
 62
    96
 10
-3.30308
 20
-79.624597
 11
-46.636413
 21
-79.624597
  0
LINE
  8
別途部材
  6
CONTINUOUS
 10
-46.136413
 20
-79.624597
 11
-46.136413
 21
-61.95793
  0
LINE
  8
別途部材
  6
CONTINUOUS
 10
-43.136413
 20
-79.624597
 11
-43.136413
 21
-61.95793
  0
LINE
  8
別途部材
  6
CONTINUOUS
 10
-46.136413
 20
-61.95793
 11
-45.136413
 21
-62.95793
  0
LINE
  8
別途部材
  6
CONTINUOUS
 10
-42.136413
 20
-79.624597
 11
-42.136413
 21
-61.95793
  0
LINE
  8
別途部材
  6
CONTINUOUS
 10
-44.136413
 20
-62.95793
 11
-43.136413
 21
-61.95793
  0
LINE
  8
別途部材
  6
CONTINUOUS
 10
-42.136413
 20
-61.95793
 11
-41.136413
 21
-62.95793
  0
LINE
  8
別途部材
  6
CONTINUOUS
 10
-43.136413
 20
-61.95793
 11
-42.136413
 21
-61.95793
  0
LINE
  8
別途部材
  6
CONTINUOUS
 10
-40.136413
 20
-62.95793
 11
-39.136413
 21
-61.95793
  0
LINE
  8
別途部材
  6
CONTINUOUS
 10
-38.136413
 20
-61.95793
 11
-37.136413
 21
-62.95793
  0
LINE
  8
別途部材
  6
CONTINUOUS
 10
-39.136413
 20
-61.95793
 11
-38.136413
 21
-61.95793
  0
LINE
  8
別途部材
  6
CONTINUOUS
 10
-44.136413
 20
-79.624597
 11
-44.136413
 21
-62.95793
  0
LINE
  8
別途部材
  6
CONTINUOUS
 10
-41.136413
 20
-79.624597
 11
-41.136413
 21
-62.95793
  0
LINE
  8
別途部材
  6
CONTINUOUS
 10
-40.136413
 20
-79.624597
 11
-40.136413
 21
-62.95793
  0
LINE
  8
別途部材
  6
CONTINUOUS
 10
-39.136413
 20
-79.624597
 11
-39.136413
 21
-61.95793
  0
LINE
  8
別途部材
  6
CONTINUOUS
 10
-38.136413
 20
-79.624597
 11
-38.136413
 21
-61.95793
  0
LINE
  8
別途部材
  6
CONTINUOUS
 10
-37.136413
 20
-79.624597
 11
-37.136413
 21
-62.95793
  0
LINE
  8
別途部材
  6
CONTINUOUS
 10
-41.136413
 20
-62.95793
 11
-40.136413
 21
-62.95793
  0
LINE
  8
別途部材
  6
CONTINUOUS
 10
-45.136413
 20
-79.624597
 11
-45.136413
 21
-62.95793
  0
LINE
  8
別途部材
  6
CONTINUOUS
 10
-44.136413
 20
-62.95793
 11
-45.136413
 21
-62.95793
  0
LINE
  8
別途部材
  6
CONTINUOUS
 10
-46.136413
 20
-61.95793
 11
-47.136413
 21
-61.95793
  0
LINE
  8
別途部材
  6
CONTINUOUS
 10
-35.136413
 20
-79.624597
 11
-35.136413
 21
-61.95793
  0
LINE
  8
別途部材
  6
CONTINUOUS
 10
-34.136413
 20
-79.624597
 11
-34.136413
 21
-61.95793
  0
LINE
  8
別途部材
  6
CONTINUOUS
 10
-36.136413
 20
-62.95793
 11
-35.136413
 21
-61.95793
  0
LINE
  8
別途部材
  6
CONTINUOUS
 10
-34.136413
 20
-61.95793
 11
-33.136413
 21
-62.95793
  0
LINE
  8
別途部材
  6
CONTINUOUS
 10
-35.136413
 20
-61.95793
 11
-34.136413
 21
-61.95793
  0
LINE
  8
別途部材
  6
CONTINUOUS
 10
-32.136413
 20
-62.95793
 11
-31.136413
 21
-61.95793
  0
LINE
  8
別途部材
  6
CONTINUOUS
 10
-30.136413
 20
-61.95793
 11
-29.136413
 21
-62.95793
  0
LINE
  8
別途部材
  6
CONTINUOUS
 10
-31.136413
 20
-61.95793
 11
-30.136413
 21
-61.95793
  0
LINE
  8
別途部材
  6
CONTINUOUS
 10
-36.136413
 20
-79.624597
 11
-36.136413
 21
-62.95793
  0
LINE
  8
別途部材
  6
CONTINUOUS
 10
-33.136413
 20
-79.624597
 11
-33.136413
 21
-62.95793
  0
LINE
  8
別途部材
  6
CONTINUOUS
 10
-32.136413
 20
-79.624597
 11
-32.136413
 21
-62.95793
  0
LINE
  8
別途部材
  6
CONTINUOUS
 10
-31.136413
 20
-79.624597
 11
-31.136413
 21
-61.95793
  0
LINE
  8
別途部材
  6
CONTINUOUS
 10
-30.136413
 20
-79.624597
 11
-30.136413
 21
-61.95793
  0
LINE
  8
別途部材
  6
CONTINUOUS
 10
-29.136413
 20
-79.624597
 11
-29.136413
 21
-62.95793
  0
LINE
  8
別途部材
  6
CONTINUOUS
 10
-33.136413
 20
-62.95793
 11
-32.136413
 21
-62.95793
  0
LINE
  8
別途部材
  6
CONTINUOUS
 10
-36.136413
 20
-62.95793
 11
-37.136413
 21
-62.95793
  0
LINE
  8
別途部材
  6
CONTINUOUS
 10
-27.136413
 20
-79.624597
 11
-27.136413
 21
-61.95793
  0
LINE
  8
別途部材
  6
CONTINUOUS
 10
-26.136413
 20
-79.624597
 11
-26.136413
 21
-61.95793
  0
LINE
  8
別途部材
  6
CONTINUOUS
 10
-28.136413
 20
-62.95793
 11
-27.136413
 21
-61.95793
  0
LINE
  8
別途部材
  6
CONTINUOUS
 10
-26.136413
 20
-61.95793
 11
-25.136413
 21
-62.95793
  0
LINE
  8
別途部材
  6
CONTINUOUS
 10
-27.136413
 20
-61.95793
 11
-26.136413
 21
-61.95793
  0
LINE
  8
別途部材
  6
CONTINUOUS
 10
-24.136413
 20
-62.95793
 11
-23.136413
 21
-61.95793
  0
LINE
  8
別途部材
  6
CONTINUOUS
 10
-22.136413
 20
-61.95793
 11
-21.136413
 21
-62.95793
  0
LINE
  8
別途部材
  6
CONTINUOUS
 10
-23.136413
 20
-61.95793
 11
-22.136413
 21
-61.95793
  0
LINE
  8
別途部材
  6
CONTINUOUS
 10
-28.136413
 20
-79.624597
 11
-28.136413
 21
-62.95793
  0
LINE
  8
別途部材
  6
CONTINUOUS
 10
-25.136413
 20
-79.624597
 11
-25.136413
 21
-62.95793
  0
LINE
  8
別途部材
  6
CONTINUOUS
 10
-24.136413
 20
-79.624597
 11
-24.136413
 21
-62.95793
  0
LINE
  8
別途部材
  6
CONTINUOUS
 10
-23.136413
 20
-79.624597
 11
-23.136413
 21
-61.95793
  0
LINE
  8
別途部材
  6
CONTINUOUS
 10
-22.136413
 20
-79.624597
 11
-22.136413
 21
-61.95793
  0
LINE
  8
別途部材
  6
CONTINUOUS
 10
-21.136413
 20
-79.624597
 11
-21.136413
 21
-62.95793
  0
LINE
  8
別途部材
  6
CONTINUOUS
 10
-25.136413
 20
-62.95793
 11
-24.136413
 21
-62.95793
  0
LINE
  8
別途部材
  6
CONTINUOUS
 10
-28.136413
 20
-62.95793
 11
-29.136413
 21
-62.95793
  0
ARC
  8
別途部材
  6
CONTINUOUS
 10
-21.636413
 20
-79.624597
 40
16.666667
 50
0.0
 51
88.280869
  0
ENDBLK
  0
BLOCK
  2
*DIM_0014
 70
    65
 10
0.0
 20
0.0
  0
LINE
  8
寸法
  6
BYBLOCK
 62
     0
 10
-91.30308
 20
8.08996
 11
-120.792158
 21
8.08996
  0
LINE
  8
寸法
  6
BYBLOCK
 62
     0
 10
-91.30308
 20
31.423293
 11
-120.792158
 21
31.423293
  0
LINE
  8
寸法
  6
BYBLOCK
 62
     0
 10
-120.792158
 20
8.08996
 11
-120.792158
 21
31.423293
  0
POINT
  8
寸法
 62
     0
 10
-120.792158
 20
8.08996
  0
POINT
  8
寸法
 62
     0
 10
-120.792158
 20
31.423293
  0
TEXT
  7
TextStyle03
  8
寸法
  6
CONTINUOUS
 62
     0
 10
-121.175
 20
17.3125
  1
700
 40
3.0
 50
90.0
 72
     5
 11
-121.175
 21
22.1875
  0
ENDBLK
  0
BLOCK
  2
*DIM_0015
 70
    65
 10
0.0
 20
0.0
  0
LINE
  8
寸法
  6
BYBLOCK
 62
     0
 10
-91.30308
 20
54.756625
 11
-120.792158
 21
54.756625
  0
LINE
  8
寸法
  6
BYBLOCK
 62
     0
 10
-120.792158
 20
31.423293
 11
-120.792158
 21
54.756625
  0
POINT
  8
寸法
 62
     0
 10
-120.792158
 20
54.756625
  0
TEXT
  7
TextStyle03
  8
寸法
  6
CONTINUOUS
 62
     0
 10
-121.175
 20
40.6375
  1
700
 40
3.0
 50
90.0
 72
     5
 11
-121.175
 21
45.5125
  0
ENDBLK
  0
BLOCK
  2
*DIM_0016
 70
    65
 10
0.0
 20
0.0
  0
LINE
  8
寸法
  6
BYBLOCK
 62
     0
 10
-81.636415
 20
67.756625
 11
-81.636415
 21
97.504245
  0
LINE
  8
寸法
  6
BYBLOCK
 62
     0
 10
-58.303082
 20
67.756625
 11
-58.303082
 21
97.504245
  0
LINE
  8
寸法
  6
BYBLOCK
 62
     0
 10
-81.636415
 20
97.504245
 11
-58.303082
 21
97.504245
  0
POINT
  8
寸法
 62
     0
 10
-81.636415
 20
97.504245
  0
POINT
  8
寸法
 62
     0
 10
-58.303082
 20
97.504245
  0
TEXT
  7
TextStyle03
  8
寸法
  6
CONTINUOUS
 62
     0
 10
-72.4125
 20
97.875
  1
700
 40
3.0
 72
     5
 11
-67.5375
 21
97.875
  0
ENDBLK
  0
BLOCK
  2
*DIM_0017
 70
    65
 10
0.0
 20
0.0
  0
LINE
  8
寸法
  6
BYBLOCK
 62
     0
 10
-34.969747
 20
67.756625
 11
-34.969747
 21
97.504245
  0
LINE
  8
寸法
  6
BYBLOCK
 62
     0
 10
-58.303082
 20
97.504245
 11
-34.969747
 21
97.504245
  0
POINT
  8
寸法
 62
     0
 10
-34.969747
 20
97.504245
  0
TEXT
  7
TextStyle03
  8
寸法
  6
CONTINUOUS
 62
     0
 10
-49.0875
 20
97.875
  1
700
 40
3.0
 72
     5
 11
-44.2125
 21
97.875
  0
ENDBLK
  0
BLOCK
  2
*DIM_0018
 70
    65
 10
0.0
 20
0.0
  0
LINE
  8
寸法
  6
BYBLOCK
 62
     0
 10
-11.636415
 20
67.756625
 11
-11.636415
 21
97.504245
  0
LINE
  8
寸法
  6
BYBLOCK
 62
     0
 10
-34.969747
 20
97.504245
 11
-11.636415
 21
97.504245
  0
POINT
  8
寸法
 62
     0
 10
-11.636415
 20
97.504245
  0
TEXT
  7
TextStyle03
  8
寸法
  6
CONTINUOUS
 62
     0
 10
-25.7375
 20
97.875
  1
700
 40
3.0
 72
     5
 11
-20.8625
 21
97.875
  0
ENDBLK
  0
BLOCK
  2
*DIM_0019
 70
    65
 10
0.0
 20
0.0
  0
LINE
  8
寸法
  6
CONTINUOUS
 10
101.878765
 20
-52.2788
 11
101.878765
 21
-42.280215
  0
LINE
  8
寸法
  6
CONTINUOUS
 10
142.662097
 20
-52.2788
 11
142.662097
 21
-42.280215
  0
LINE
  8
寸法
  6
CONTINUOUS
 10
101.878765
 20
-42.280215
 11
142.662097
 21
-42.280215
  0
POINT
  8
寸法
 10
101.878765
 20
-42.280215
  0
POINT
  8
寸法
 10
142.662097
 20
-42.280215
  0
TEXT
  7
TextStyle03
  8
寸法
  6
CONTINUOUS
 10
117.28125
 20
-41.925
  1
1223.5
 40
3.0
 72
     5
 11
127.21875
 21
-41.925
  0
ENDBLK
  0
BLOCK
  2
*DIM_0020
 70
    65
 10
0.0
 20
0.0
  0
LINE
  8
寸法
  6
CONTINUOUS
 10
145.70666
 20
-87.823622
 11
157.469785
 21
-87.823622
  0
LINE
  8
寸法
  6
CONTINUOUS
 10
145.70666
 20
-55.373622
 11
157.469785
 21
-55.373622
  0
LINE
  8
寸法
  6
CONTINUOUS
 10
157.469785
 20
-87.823622
 11
157.469785
 21
-55.373622
  0
POINT
  8
寸法
 10
157.469785
 20
-87.823622
  0
POINT
  8
寸法
 10
157.469785
 20
-55.373622
  0
TEXT
  7
TextStyle03
  8
寸法
  6
CONTINUOUS
 10
157.075
 20
-75.725
  1
973.5
 40
3.0
 50
90.0
 72
     5
 11
157.075
 21
-67.475
  0
ENDBLK
  0
BLOCK
  2
*GRP_0021
 70
    65
 10
0.0
 20
0.0
  0
LINE
  8
ボルト／ビス
  6
CONTINUOUS
 10
-88.96975
 20
-79.624597
 11
-88.96975
 21
-79.157932
  0
LINE
  8
ボルト／ビス
  6
CONTINUOUS
 10
-89.336417
 20
-79.624597
 11
-89.336417
 21
-79.557932
  0
LINE
  8
ボルト／ビス
  6
CONTINUOUS
 10
-89.336417
 20
-79.557932
 11
-88.603085
 21
-79.557932
  0
LINE
  8
ボルト／ビス
  6
CONTINUOUS
 10
-88.603085
 20
-79.557932
 11
-88.603085
 21
-79.624597
  0
LINE
  8
ボルト／ビス
  6
CONTINUOUS
 10
-89.336417
 20
-79.624597
 11
-88.603085
 21
-79.624597
  0
LINE
  8
ボルト／ビス
  6
CONTINUOUS
 10
-89.26975
 20
-79.524597
 11
-89.26975
 21
-79.557932
  0
LINE
  8
ボルト／ビス
  6
CONTINUOUS
 10
-89.26975
 20
-79.524597
 11
-88.66975
 21
-79.524597
  0
LINE
  8
ボルト／ビス
  6
CONTINUOUS
 10
-88.66975
 20
-79.524597
 11
-88.66975
 21
-79.557932
  0
LINE
  8
ボルト／ビス
  6
CONTINUOUS
 62
    64
 10
-89.130125
 20
-79.324597
 11
-89.1622
 21
-79.336272
  0
ARC
  8
ボルト／ビス
  6
CONTINUOUS
 62
    64
 10
-89.114087
 20
-79.429577
 40
0.104978
 50
62.721967
 51
90.0
  0
ARC
  8
ボルト／ビス
  6
CONTINUOUS
 62
    64
 10
-88.96975
 20
-79.727001
 40
0.402402
 50
76.165002
 51
103.834985
  0
LINE
  8
ボルト／ビス
  6
CONTINUOUS
 62
    64
 10
-88.809375
 20
-79.324597
 11
-88.7773
 21
-79.336272
  0
ARC
  8
ボルト／ビス
  6
CONTINUOUS
 62
    64
 10
-88.825412
 20
-79.429577
 40
0.104978
 50
90.0
 51
117.278033
  0
LINE
  8
ボルト／ビス
  6
CONTINUOUS
 62
    64
 10
-89.130125
 20
-79.324597
 11
-88.809375
 21
-79.324597
  0
LINE
  8
ボルト／ビス
  6
CONTINUOUS
 62
    64
 10
-88.7773
 20
-79.336272
 11
-88.7773
 21
-79.457932
  0
LINE
  8
ボルト／ビス
  6
CONTINUOUS
 62
    64
 10
-88.873525
 20
-79.336272
 11
-88.873525
 21
-79.457932
  0
LINE
  8
ボルト／ビス
  6
CONTINUOUS
 62
    64
 10
-89.1622
 20
-79.336272
 11
-89.1622
 21
-79.457932
  0
LINE
  8
ボルト／ビス
  6
CONTINUOUS
 62
    64
 10
-89.065975
 20
-79.336272
 11
-89.065975
 21
-79.457932
  0
LINE
  8
ボルト／ビス
  6
CONTINUOUS
 10
-89.1622
 20
-79.457932
 11
-88.7773
 21
-79.457932
  0
LINE
  8
ボルト／ビス
  6
CONTINUOUS
 10
-89.16975
 20
-79.457932
 11
-89.16975
 21
-79.524597
  0
LINE
  8
ボルト／ビス
  6
CONTINUOUS
 10
-89.16975
 20
-79.457932
 11
-88.76975
 21
-79.457932
  0
LINE
  8
ボルト／ビス
  6
CONTINUOUS
 10
-88.76975
 20
-79.457932
 11
-88.76975
 21
-79.524597
  0
ENDBLK
  0
BLOCK
  2
*GRP_0022
 70
    65
 10
0.0
 20
0.0
  0
LINE
  8
ボルト／ビス
  6
CONTINUOUS
 10
-4.30308
 20
-79.624597
 11
-4.30308
 21
-79.157932
  0
LINE
  8
ボルト／ビス
  6
CONTINUOUS
 10
-4.669747
 20
-79.624597
 11
-4.669747
 21
-79.557932
  0
LINE
  8
ボルト／ビス
  6
CONTINUOUS
 10
-4.669747
 20
-79.557932
 11
-3.936415
 21
-79.557932
  0
LINE
  8
ボルト／ビス
  6
CONTINUOUS
 10
-3.936415
 20
-79.557932
 11
-3.936415
 21
-79.624597
  0
LINE
  8
ボルト／ビス
  6
CONTINUOUS
 10
-4.669747
 20
-79.624597
 11
-3.936415
 21
-79.624597
  0
LINE
  8
ボルト／ビス
  6
CONTINUOUS
 10
-4.60308
 20
-79.524597
 11
-4.60308
 21
-79.557932
  0
LINE
  8
ボルト／ビス
  6
CONTINUOUS
 10
-4.60308
 20
-79.524597
 11
-4.00308
 21
-79.524597
  0
LINE
  8
ボルト／ビス
  6
CONTINUOUS
 10
-4.00308
 20
-79.524597
 11
-4.00308
 21
-79.557932
  0
LINE
  8
ボルト／ビス
  6
CONTINUOUS
 62
    64
 10
-4.463455
 20
-79.324597
 11
-4.49553
 21
-79.336272
  0
ARC
  8
ボルト／ビス
  6
CONTINUOUS
 62
    64
 10
-4.447417
 20
-79.429577
 40
0.104978
 50
62.721967
 51
90.0
  0
ARC
  8
ボルト／ビス
  6
CONTINUOUS
 62
    64
 10
-4.303079
 20
-79.727001
 40
0.402402
 50
76.165002
 51
103.834985
  0
LINE
  8
ボルト／ビス
  6
CONTINUOUS
 62
    64
 10
-4.142705
 20
-79.324597
 11
-4.11063
 21
-79.336272
  0
ARC
  8
ボルト／ビス
  6
CONTINUOUS
 62
    64
 10
-4.158742
 20
-79.429577
 40
0.104978
 50
90.0
 51
117.278033
  0
LINE
  8
ボルト／ビス
  6
CONTINUOUS
 62
    64
 10
-4.463455
 20
-79.324597
 11
-4.142705
 21
-79.324597
  0
LINE
  8
ボルト／ビス
  6
CONTINUOUS
 62
    64
 10
-4.11063
 20
-79.336272
 11
-4.11063
 21
-79.457932
  0
LINE
  8
ボルト／ビス
  6
CONTINUOUS
 62
    64
 10
-4.206855
 20
-79.336272
 11
-4.206855
 21
-79.457932
  0
LINE
  8
ボルト／ビス
  6
CONTINUOUS
 62
    64
 10
-4.49553
 20
-79.336272
 11
-4.49553
 21
-79.457932
  0
LINE
  8
ボルト／ビス
  6
CONTINUOUS
 62
    64
 10
-4.399305
 20
-79.336272
 11
-4.399305
 21
-79.457932
  0
LINE
  8
ボルト／ビス
  6
CONTINUOUS
 10
-4.49553
 20
-79.457932
 11
-4.11063
 21
-79.457932
  0
LINE
  8
ボルト／ビス
  6
CONTINUOUS
 10
-4.50308
 20
-79.457932
 11
-4.50308
 21
-79.524597
  0
LINE
  8
ボルト／ビス
  6
CONTINUOUS
 10
-4.50308
 20
-79.457932
 11
-4.10308
 21
-79.457932
  0
LINE
  8
ボルト／ビス
  6
CONTINUOUS
 10
-4.10308
 20
-79.457932
 11
-4.10308
 21
-79.524597
  0
ENDBLK
  0
BLOCK
  2
*GRP_0023
 70
    65
 10
0.0
 20
0.0
  0
LINE
  8
ボルト／ビス
  6
CONTINUOUS
 10
84.563517
 20
-2.57671
 11
84.096853
 21
-2.57671
  0
LINE
  8
ボルト／ビス
  6
CONTINUOUS
 10
84.563517
 20
-2.943378
 11
84.496853
 21
-2.943378
  0
LINE
  8
ボルト／ビス
  6
CONTINUOUS
 10
84.496853
 20
-2.943378
 11
84.496853
 21
-2.210045
  0
LINE
  8
ボルト／ビス
  6
CONTINUOUS
 10
84.496853
 20
-2.210045
 11
84.563517
 21
-2.210045
  0
LINE
  8
ボルト／ビス
  6
CONTINUOUS
 10
84.563517
 20
-2.943378
 11
84.563517
 21
-2.210045
  0
LINE
  8
ボルト／ビス
  6
CONTINUOUS
 10
84.463517
 20
-2.87671
 11
84.496853
 21
-2.87671
  0
LINE
  8
ボルト／ビス
  6
CONTINUOUS
 10
84.463517
 20
-2.87671
 11
84.463517
 21
-2.27671
  0
LINE
  8
ボルト／ビス
  6
CONTINUOUS
 10
84.463517
 20
-2.27671
 11
84.496853
 21
-2.27671
  0
LINE
  8
ボルト／ビス
  6
CONTINUOUS
 62
    64
 10
84.263517
 20
-2.737085
 11
84.275193
 21
-2.76916
  0
ARC
  8
ボルト／ビス
  6
CONTINUOUS
 62
    64
 10
84.368498
 20
-2.721049
 40
0.104978
 50
152.721967
 51
180.0
  0
ARC
  8
ボルト／ビス
  6
CONTINUOUS
 62
    64
 10
84.665922
 20
-2.576711
 40
0.402402
 50
166.165002
 51
193.834985
  0
LINE
  8
ボルト／ビス
  6
CONTINUOUS
 62
    64
 10
84.263517
 20
-2.416335
 11
84.275193
 21
-2.38426
  0
ARC
  8
ボルト／ビス
  6
CONTINUOUS
 62
    64
 10
84.368498
 20
-2.432374
 40
0.104978
 50
180.0
 51
207.278033
  0
LINE
  8
ボルト／ビス
  6
CONTINUOUS
 62
    64
 10
84.263517
 20
-2.737085
 11
84.263517
 21
-2.416335
  0
LINE
  8
ボルト／ビス
  6
CONTINUOUS
 62
    64
 10
84.275193
 20
-2.38426
 11
84.396853
 21
-2.38426
  0
LINE
  8
ボルト／ビス
  6
CONTINUOUS
 62
    64
 10
84.275193
 20
-2.480485
 11
84.396853
 21
-2.480485
  0
LINE
  8
ボルト／ビス
  6
CONTINUOUS
 62
    64
 10
84.275193
 20
-2.76916
 11
84.396853
 21
-2.76916
  0
LINE
  8
ボルト／ビス
  6
CONTINUOUS
 62
    64
 10
84.275193
 20
-2.672935
 11
84.396853
 21
-2.672935
  0
LINE
  8
ボルト／ビス
  6
CONTINUOUS
 10
84.396853
 20
-2.76916
 11
84.396853
 21
-2.38426
  0
LINE
  8
ボルト／ビス
  6
CONTINUOUS
 10
84.396853
 20
-2.77671
 11
84.463517
 21
-2.77671
  0
LINE
  8
ボルト／ビス
  6
CONTINUOUS
 10
84.396853
 20
-2.77671
 11
84.396853
 21
-2.37671
  0
LINE
  8
ボルト／ビス
  6
CONTINUOUS
 10
84.396853
 20
-2.37671
 11
84.463517
 21
-2.37671
  0
ENDBLK
  0
BLOCK
  2
*GRP_0024
 70
    65
 10
0.0
 20
0.0
  0
LINE
  8
ボルト／ビス
  6
CONTINUOUS
 10
84.563517
 20
65.42329
 11
84.096853
 21
65.42329
  0
LINE
  8
ボルト／ビス
  6
CONTINUOUS
 10
84.563517
 20
65.056623
 11
84.496853
 21
65.056623
  0
LINE
  8
ボルト／ビス
  6
CONTINUOUS
 10
84.496853
 20
65.056623
 11
84.496853
 21
65.789955
  0
LINE
  8
ボルト／ビス
  6
CONTINUOUS
 10
84.496853
 20
65.789955
 11
84.563517
 21
65.789955
  0
LINE
  8
ボルト／ビス
  6
CONTINUOUS
 10
84.563517
 20
65.056623
 11
84.563517
 21
65.789955
  0
LINE
  8
ボルト／ビス
  6
CONTINUOUS
 10
84.463517
 20
65.12329
 11
84.496853
 21
65.12329
  0
LINE
  8
ボルト／ビス
  6
CONTINUOUS
 10
84.463517
 20
65.12329
 11
84.463517
 21
65.72329
  0
LINE
  8
ボルト／ビス
  6
CONTINUOUS
 10
84.463517
 20
65.72329
 11
84.496853
 21
65.72329
  0
LINE
  8
ボルト／ビス
  6
CONTINUOUS
 62
    64
 10
84.263517
 20
65.262915
 11
84.275193
 21
65.23084
  0
ARC
  8
ボルト／ビス
  6
CONTINUOUS
 62
    64
 10
84.368498
 20
65.278951
 40
0.104978
 50
152.721967
 51
180.0
  0
ARC
  8
ボルト／ビス
  6
CONTINUOUS
 62
    64
 10
84.665922
 20
65.423289
 40
0.402402
 50
166.165002
 51
193.834985
  0
LINE
  8
ボルト／ビス
  6
CONTINUOUS
 62
    64
 10
84.263517
 20
65.583665
 11
84.275193
 21
65.61574
  0
ARC
  8
ボルト／ビス
  6
CONTINUOUS
 62
    64
 10
84.368498
 20
65.567626
 40
0.104978
 50
180.0
 51
207.278033
  0
LINE
  8
ボルト／ビス
  6
CONTINUOUS
 62
    64
 10
84.263517
 20
65.262915
 11
84.263517
 21
65.583665
  0
LINE
  8
ボルト／ビス
  6
CONTINUOUS
 62
    64
 10
84.275193
 20
65.61574
 11
84.396853
 21
65.61574
  0
LINE
  8
ボルト／ビス
  6
CONTINUOUS
 62
    64
 10
84.275193
 20
65.519515
 11
84.396853
 21
65.519515
  0
LINE
  8
ボルト／ビス
  6
CONTINUOUS
 62
    64
 10
84.275193
 20
65.23084
 11
84.396853
 21
65.23084
  0
LINE
  8
ボルト／ビス
  6
CONTINUOUS
 62
    64
 10
84.275193
 20
65.327065
 11
84.396853
 21
65.327065
  0
LINE
  8
ボルト／ビス
  6
CONTINUOUS
 10
84.396853
 20
65.23084
 11
84.396853
 21
65.61574
  0
LINE
  8
ボルト／ビス
  6
CONTINUOUS
 10
84.396853
 20
65.22329
 11
84.463517
 21
65.22329
  0
LINE
  8
ボルト／ビス
  6
CONTINUOUS
 10
84.396853
 20
65.22329
 11
84.396853
 21
65.62329
  0
LINE
  8
ボルト／ビス
  6
CONTINUOUS
 10
84.396853
 20
65.62329
 11
84.463517
 21
65.62329
  0
ENDBLK
  0
ENDSEC
  0
SECTION
  2
ENTITIES
  0
POLYLINE
  8
通り芯
  6
CONTINUOUS
 66
     1
 70
     1
  0
VERTEX
  8
通り芯
 10
-210.0
 20
-148.5
  0
VERTEX
  8
通り芯
 10
210.0
 20
-148.5
  0
VERTEX
  8
通り芯
 10
210.0
 20
148.5
  0
VERTEX
  8
通り芯
 10
-210.0
 20
148.5
  0
SEQEND
  0
INSERT
  2
*GRP_0001
  8
型材断面
  6
CONTINUOUS
 10
0.0
 20
0.0
  0
LINE
  8
型材断面
  6
DASHDOT
 10
-4.969747
 20
64.756625
 11
-4.969747
 21
-87.251428
  0
LINE
  8
型材断面
  6
DASHDOT
 10
-46.636415
 20
64.756625
 11
-46.636415
 21
-87.251428
  0
LINE
  8
型材断面
  6
DASHDOT
 10
-88.30308
 20
64.756625
 11
-88.30308
 21
-87.251428
  0
LINE
  8
型材断面
  6
DASHDOT
 10
92.707015
 20
-1.910042
 11
-88.30308
 21
-1.910042
  0
LINE
  8
型材断面
  6
DASHDOT
 10
92.707015
 20
31.423293
 11
-88.30308
 21
31.423293
  0
LINE
  8
型材断面
  6
DASHDOT
 10
92.707015
 20
64.756625
 11
-88.30308
 21
64.756625
  0
LINE
  8
型材断面
  6
DOT
 10
-45.386415
 20
-1.910042
 11
-45.386415
 21
64.756625
  0
LINE
  8
型材断面
  6
DOT
 10
-47.886415
 20
-1.910042
 11
-47.886415
 21
64.756625
  0
LINE
  8
型材断面
  6
DOT
 10
-4.969747
 20
32.673293
 11
-45.386415
 21
32.673293
  0
LINE
  8
型材断面
  6
DOT
 10
-4.969747
 20
30.173293
 11
-45.386415
 21
30.173293
  0
LINE
  8
型材断面
  6
CONTINUOUS
 10
-90.93321
 20
31.423293
 11
-93.523718
 21
32.918923
  0
LINE
  8
型材断面
  6
CONTINUOUS
 10
-90.93321
 20
31.423293
 11
-93.523718
 21
29.927663
  0
LINE
  8
型材断面
  6
CONTINUOUS
 10
-93.523718
 20
29.927663
 11
-93.523718
 21
32.918923
  0
LINE
  8
型材断面
  6
CONTINUOUS
 10
-129.155288
 20
109.263973
 11
-130.650918
 21
106.673465
  0
LINE
  8
型材断面
  6
CONTINUOUS
 10
-129.155288
 20
109.263973
 11
-127.659657
 21
106.673465
  0
LINE
  8
型材断面
  6
CONTINUOUS
 10
-127.659657
 20
106.673465
 11
-130.650918
 21
106.673465
  0
LINE
  8
型材断面
  6
CONTINUOUS
 10
-135.177875
 20
105.73487
 11
-88.936097
 21
105.73487
  0
LINE
  8
型材断面
  6
CONTINUOUS
 10
-71.636413
 20
-4.54017
 11
-73.132042
 21
-7.130678
  0
LINE
  8
型材断面
  6
CONTINUOUS
 10
-71.636413
 20
-4.54017
 11
-70.140783
 21
-7.130678
  0
LINE
  8
型材断面
  6
CONTINUOUS
 10
-70.140783
 20
-7.130678
 11
-73.132042
 21
-7.130678
  0
LINE
  8
型材断面
  6
CONTINUOUS
 10
-71.636413
 20
67.386755
 11
-73.132042
 21
69.977262
  0
LINE
  8
型材断面
  6
CONTINUOUS
 10
-71.636413
 20
67.386755
 11
-70.140783
 21
69.977262
  0
LINE
  8
型材断面
  6
CONTINUOUS
 10
-70.140783
 20
69.977262
 11
-73.132042
 21
69.977262
  0
LINE
  8
型材断面
  6
CONTINUOUS
 10
-2.33962
 20
31.423293
 11
0.250887
 21
32.918923
  0
LINE
  8
型材断面
  6
CONTINUOUS
 10
-2.33962
 20
31.423293
 11
0.250887
 21
29.927663
  0
LINE
  8
型材断面
  6
CONTINUOUS
 10
0.250887
 20
29.927663
 11
0.250887
 21
32.918923
  0
LINE
  8
型材断面
  6
CONTINUOUS
 10
-21.636417
 20
-4.54017
 11
-20.140787
 21
-7.130678
  0
LINE
  8
型材断面
  6
CONTINUOUS
 10
-21.636417
 20
-4.54017
 11
-23.132048
 21
-7.130678
  0
LINE
  8
型材断面
  6
CONTINUOUS
 10
-23.132048
 20
-7.130678
 11
-20.140787
 21
-7.130678
  0
LINE
  8
型材断面
  6
CONTINUOUS
 10
-21.636417
 20
67.386755
 11
-20.140787
 21
69.977262
  0
LINE
  8
型材断面
  6
CONTINUOUS
 10
-21.636417
 20
67.386755
 11
-23.132048
 21
69.977262
  0
LINE
  8
型材断面
  6
CONTINUOUS
 10
-23.132048
 20
69.977262
 11
-20.140787
 21
69.977262
  0
LINE
  8
型材断面
  6
CONTINUOUS
 10
-135.177875
 20
100.151665
 11
-88.936097
 21
100.151665
  0
LINE
  8
型材断面
  6
CONTINUOUS
 10
87.0968
 20
66.91344
 11
86.6468
 21
66.91344
  0
LINE
  8
型材断面
  6
CONTINUOUS
 62
    47
 10
86.6468
 20
67.36344
 11
86.1468
 21
67.36344
  0
LINE
  8
型材断面
  6
CONTINUOUS
 62
    47
 10
86.1468
 20
67.36344
 11
85.563515
 21
65.488983
  0
LINE
  8
型材断面
  6
CONTINUOUS
 10
86.1468
 20
67.36344
 11
86.1468
 21
31.423293
  0
LINE
  8
型材断面
  6
CONTINUOUS
 10
87.0968
 20
66.91344
 11
87.0968
 21
31.423293
  0
LINE
  8
型材断面
  6
CONTINUOUS
 10
87.0968
 20
-4.066855
 11
86.6468
 21
-4.066855
  0
LINE
  8
型材断面
  6
CONTINUOUS
 62
    47
 10
86.6468
 20
-4.516855
 11
86.1468
 21
-4.516855
  0
LINE
  8
型材断面
  6
CONTINUOUS
 62
    47
 10
86.1468
 20
-4.516855
 11
85.563515
 21
-2.642397
  0
LINE
  8
型材断面
  6
CONTINUOUS
 10
86.1468
 20
-4.516855
 11
86.1468
 21
31.423293
  0
LINE
  8
型材断面
  6
CONTINUOUS
 10
87.0968
 20
-4.066855
 11
87.0968
 21
31.423293
  0
LINE
  8
型材断面
  6
CONTINUOUS
 10
-2.90308
 20
-3.97671
 11
-2.362935
 21
-4.516855
  0
LINE
  8
型材断面
  6
CONTINUOUS
 10
-2.362935
 20
-4.516855
 11
-46.636415
 21
-4.516842
  0
LINE
  8
型材断面
  6
CONTINUOUS
 10
-2.362935
 20
-4.516855
 11
-2.362935
 21
31.423293
  0
LINE
  8
型材断面
  6
CONTINUOUS
 10
-2.90308
 20
66.823295
 11
-2.362935
 21
67.36344
  0
LINE
  8
型材断面
  6
CONTINUOUS
 10
-2.362935
 20
67.36344
 11
-46.636415
 21
67.363428
  0
LINE
  8
型材断面
  6
CONTINUOUS
 10
-2.362935
 20
67.36344
 11
-2.362935
 21
31.423293
  0
LINE
  8
型材断面
  6
CONTINUOUS
 10
-90.36975
 20
66.823295
 11
-90.909895
 21
67.36344
  0
LINE
  8
型材断面
  6
CONTINUOUS
 10
-90.909895
 20
67.36344
 11
-46.636415
 21
67.363428
  0
LINE
  8
型材断面
  6
CONTINUOUS
 10
-90.909895
 20
67.36344
 11
-90.909895
 21
31.423293
  0
LINE
  8
型材断面
  6
CONTINUOUS
 10
-90.36975
 20
-3.97671
 11
-90.909895
 21
-4.516855
  0
LINE
  8
型材断面
  6
CONTINUOUS
 10
-90.909895
 20
-4.516855
 11
-46.636415
 21
-4.516842
  0
LINE
  8
型材断面
  6
CONTINUOUS
 10
-90.909895
 20
-4.516855
 11
-90.909895
 21
31.423293
  0
LINE
  8
型材断面
  6
CONTINUOUS
 10
-2.812935
 20
-82.157882
 11
-2.812935
 21
-81.707882
  0
LINE
  8
型材断面
  6
CONTINUOUS
 62
    47
 10
-2.362935
 20
-81.707882
 11
-2.362935
 21
-81.207882
  0
LINE
  8
型材断面
  6
CONTINUOUS
 62
    47
 10
-2.362935
 20
-81.207882
 11
-4.237392
 21
-80.624597
  0
LINE
  8
型材断面
  6
CONTINUOUS
 10
-2.362935
 20
-81.207882
 11
-46.636415
 21
-81.207882
  0
LINE
  8
型材断面
  6
CONTINUOUS
 10
-2.812935
 20
-82.157882
 11
-46.636415
 21
-82.157882
  0
LINE
  8
型材断面
  6
CONTINUOUS
 10
-90.459895
 20
-82.157882
 11
-90.459895
 21
-81.707882
  0
LINE
  8
型材断面
  6
CONTINUOUS
 62
    47
 10
-90.909895
 20
-81.707882
 11
-90.909895
 21
-81.207882
  0
LINE
  8
型材断面
  6
CONTINUOUS
 62
    47
 10
-90.909895
 20
-81.207882
 11
-89.035437
 21
-80.624597
  0
LINE
  8
型材断面
  6
CONTINUOUS
 10
-90.909895
 20
-81.207882
 11
-46.636415
 21
-81.207882
  0
LINE
  8
型材断面
  6
CONTINUOUS
 10
-90.459895
 20
-82.157882
 11
-46.636415
 21
-82.157882
  0
LINE
  8
型材断面
  6
DOT
 10
-88.303082
 20
30.173293
 11
-47.886415
 21
30.173293
  0
LINE
  8
型材断面
  6
DOT
 10
-88.303082
 20
32.673293
 11
-47.886415
 21
32.673293
  0
LINE
  8
ガラス
  6
CONTINUOUS
 10
142.662097
 20
-55.373622
 11
142.662097
 21
-87.823622
  0
LINE
  8
ガラス
  6
CONTINUOUS
 10
142.662097
 20
-55.373622
 11
101.878765
 21
-55.373622
  0
LINE
  8
ガラス
  6
CONTINUOUS
 10
142.662097
 20
-87.823622
 11
101.878765
 21
-87.823622
  0
LINE
  8
ガラス
  6
CONTINUOUS
 10
101.878765
 20
-55.373622
 11
101.878765
 21
-87.823622
  0
TEXT
  7
TextStyle03
  8
文字
  6
CONTINUOUS
 10
-126.35
 20
106.85
  1
は排水穴位置を示す
 40
3.0
 72
     5
 11
-96.35
 21
106.85
  0
TEXT
  7
TextStyle03
  8
文字
  6
CONTINUOUS
 10
-130.075
 20
101.05
  1
アンカー数量　１４ヶ所
 40
3.0
 72
     5
 11
-93.325
 21
101.05
  0
TEXT
  7
TextStyle03
  8
文字
  6
CONTINUOUS
 10
124.05
 20
-81.275
  1
網入り6.8t
 40
3.0
 72
     5
 11
140.7375
 21
-81.275
  0
TEXT
  7
TextStyle03
  8
文字
  6
CONTINUOUS
 10
130.725
 20
-85.95
  1
×４枚
 40
3.0
 72
     5
 11
140.475
 21
-85.95
  0
TEXT
  7
TextStyle03
  8
文字
  6
CONTINUOUS
 10
-127.025
 20
2.025
  1
アンカーピッチ
 40
3.0
 50
90.0
 72
     5
 11
-127.025
 21
25.275
  0
TEXT
  7
TextStyle03
  8
文字
  6
CONTINUOUS
 10
-81.675
 20
102.775
  1
アンカーピッチ
 40
3.0
 72
     5
 11
-58.425
 21
102.775
  0
TEXT
  7
TextStyle03
  8
文字
  6
CONTINUOUS
 10
78.1
 20
125.25
  1
シリーズ：ＳＴＤＫＬ
 40
5.0
 72
     5
 11
133.725
 21
125.25
  0
TEXT
  7
TextStyle03
  8
文字
  6
CONTINUOUS
 10
78.1
 20
119.625
  1
　　　　　（固定）2000×2500タイプ
 40
5.0
 72
     5
 11
173.1
 21
119.625
  0
TEXT
  7
TextStyle03
  8
文字
  6
CONTINUOUS
 10
78.1
 20
114.0
  1
図面名　：外観姿図
 40
5.0
 72
     5
 11
128.1
 21
114.0
  0
TEXT
  7
TextStyle03
  8
文字
  6
CONTINUOUS
 10
78.1
 20
108.375
  1
　　　　　　
 40
5.0
 72
     5
 11
111.225
 21
108.375
  0
TEXT
  7
TextStyle03
  8
文字
  6
CONTINUOUS
 10
78.05
 20
104.175
  1
ＮＳコード：ＮＳＫＳＬ
 40
5.0
 72
     5
 11
139.3
 21
104.175
  0
INSERT
  2
*DIM_0002
  8
寸法
  6
CONTINUOUS
 10
0.0
 20
0.0
  0
INSERT
  2
*DIM_0003
  8
寸法
  6
CONTINUOUS
 10
0.0
 20
0.0
  0
INSERT
  2
*DIM_0004
  8
寸法
  6
CONTINUOUS
 10
0.0
 20
0.0
  0
INSERT
  2
*DIM_0005
  8
寸法
  6
CONTINUOUS
 10
0.0
 20
0.0
  0
INSERT
  2
*DIM_0006
  8
寸法
  6
CONTINUOUS
 10
0.0
 20
0.0
  0
INSERT
  2
*DIM_0007
  8
寸法
  6
CONTINUOUS
 10
0.0
 20
0.0
  0
INSERT
  2
*DIM_0008
  8
寸法
  6
CONTINUOUS
 10
0.0
 20
0.0
  0
INSERT
  2
*DIM_0009
  8
寸法
  6
CONTINUOUS
 10
0.0
 20
0.0
  0
INSERT
  2
*DIM_0010
  8
寸法
  6
CONTINUOUS
 10
0.0
 20
0.0
  0
INSERT
  2
*DIM_0011
  8
寸法
  6
CONTINUOUS
 10
0.0
 20
0.0
  0
INSERT
  2
*DIM_0012
  8
寸法
  6
CONTINUOUS
 10
0.0
 20
0.0
  0
INSERT
  2
*DIM_0014
  8
寸法
  6
CONTINUOUS
 10
0.0
 20
0.0
  0
INSERT
  2
*DIM_0015
  8
寸法
  6
CONTINUOUS
 10
0.0
 20
0.0
  0
INSERT
  2
*DIM_0016
  8
寸法
  6
CONTINUOUS
 10
0.0
 20
0.0
  0
INSERT
  2
*DIM_0017
  8
寸法
  6
CONTINUOUS
 10
0.0
 20
0.0
  0
INSERT
  2
*DIM_0018
  8
寸法
  6
CONTINUOUS
 10
0.0
 20
0.0
  0
INSERT
  2
*DIM_0019
  8
寸法
  6
CONTINUOUS
 10
0.0
 20
0.0
  0
INSERT
  2
*DIM_0020
  8
寸法
  6
CONTINUOUS
 10
0.0
 20
0.0
  0
LINE
  8
別途部材
  6
CONTINUOUS
 10
-2.90308
 20
-3.97671
 11
-3.30308
 21
-3.57671
  0
LINE
  8
別途部材
  6
CONTINUOUS
 10
-4.969747
 20
-1.910042
 11
-13.029003
 21
6.149215
  0
LINE
  8
別途部材
  6
CONTINUOUS
 10
-2.90308
 20
-3.97671
 11
-2.90308
 21
31.423293
  0
LINE
  8
別途部材
  6
CONTINUOUS
 10
-3.30308
 20
-3.57671
 11
-3.30308
 21
31.423293
  0
LINE
  8
別途部材
  6
CONTINUOUS
 10
-2.90308
 20
66.823295
 11
-3.30308
 21
66.423295
  0
LINE
  8
別途部材
  6
CONTINUOUS
 10
-4.969747
 20
64.756627
 11
-13.029003
 21
56.69737
  0
LINE
  8
別途部材
  6
CONTINUOUS
 10
-2.90308
 20
66.823295
 11
-2.90308
 21
31.423293
  0
LINE
  8
別途部材
  6
CONTINUOUS
 10
-3.30308
 20
66.423295
 11
-3.30308
 21
31.423293
  0
LINE
  8
別途部材
  6
CONTINUOUS
 62
    96
 10
84.563517
 20
-3.57671
 11
85.563517
 21
-3.97671
  0
ARC
  8
別途部材
  6
CONTINUOUS
 10
109.563514
 20
31.42329
 40
41.666665
 50
180.0
 51
233.130105
  0
ARC
  8
別途部材
  6
CONTINUOUS
 10
109.563514
 20
31.423291
 40
41.666665
 50
126.869895
 51
180.0
  0
LINE
  8
別途部材
  6
CONTINUOUS
 10
85.563517
 20
-3.97671
 11
85.563517
 21
31.42329
  0
LINE
  8
別途部材
  6
CONTINUOUS
 62
    96
 10
84.563517
 20
-3.57671
 11
84.563517
 21
31.42329
  0
LINE
  8
別途部材
  6
CONTINUOUS
 62
    96
 10
84.563517
 20
66.42329
 11
85.563517
 21
66.82329
  0
LINE
  8
別途部材
  6
CONTINUOUS
 10
85.563517
 20
66.82329
 11
85.563517
 21
31.42329
  0
LINE
  8
別途部材
  6
CONTINUOUS
 62
    96
 10
84.563517
 20
66.42329
 11
84.563517
 21
31.42329
  0
LINE
  8
別途部材
  6
CONTINUOUS
 10
-3.30308
 20
66.423295
 11
-46.636415
 21
66.423295
  0
LINE
  8
別途部材
  6
CONTINUOUS
 10
-2.90308
 20
66.823295
 11
-46.636415
 21
66.823295
  0
LINE
  8
別途部材
  6
CONTINUOUS
 10
-2.90308
 20
-3.97671
 11
-46.636415
 21
-3.97671
  0
LINE
  8
別途部材
  6
CONTINUOUS
 10
-3.30308
 20
-3.57671
 11
-46.636415
 21
-3.57671
  0
LINE
  8
別途部材
  6
CONTINUOUS
 10
-90.36975
 20
-3.97671
 11
-89.96975
 21
-3.57671
  0
LINE
  8
別途部材
  6
CONTINUOUS
 10
-88.303082
 20
-1.910042
 11
-80.243828
 21
6.149215
  0
LINE
  8
別途部材
  6
CONTINUOUS
 10
-90.36975
 20
-3.97671
 11
-90.36975
 21
31.423293
  0
LINE
  8
別途部材
  6
CONTINUOUS
 10
-89.96975
 20
-3.57671
 11
-89.96975
 21
31.423293
  0
LINE
  8
別途部材
  6
CONTINUOUS
 10
-90.36975
 20
66.823295
 11
-89.96975
 21
66.423295
  0
LINE
  8
別途部材
  6
CONTINUOUS
 10
-88.303082
 20
64.756627
 11
-80.243828
 21
56.69737
  0
LINE
  8
別途部材
  6
CONTINUOUS
 10
-90.36975
 20
66.823295
 11
-90.36975
 21
31.423293
  0
LINE
  8
別途部材
  6
CONTINUOUS
 10
-89.96975
 20
66.423295
 11
-89.96975
 21
31.423293
  0
LINE
  8
別途部材
  6
CONTINUOUS
 10
-89.96975
 20
66.423295
 11
-46.636415
 21
66.423295
  0
LINE
  8
別途部材
  6
CONTINUOUS
 10
-90.36975
 20
66.823295
 11
-46.636415
 21
66.823295
  0
LINE
  8
別途部材
  6
CONTINUOUS
 10
-90.36975
 20
-3.97671
 11
-46.636415
 21
-3.97671
  0
LINE
  8
別途部材
  6
CONTINUOUS
 10
-89.96975
 20
-3.57671
 11
-46.636415
 21
-3.57671
  0
INSERT
  2
*GRP_0013
  8
別途部材
  6
CONTINUOUS
 10
0.0
 20
0.0
  0
INSERT
  2
*GRP_0021
  8
別途部材
  6
DOT
 10
0.0
 20
0.0
  0
INSERT
  2
*GRP_0022
  8
別途部材
  6
DOT
 10
0.0
 20
0.0
  0
INSERT
  2
*GRP_0023
  8
別途部材
  6
DOT
 10
0.0
 20
0.0
  0
INSERT
  2
*GRP_0024
  8
別途部材
  6
DOT
 10
0.0
 20
0.0
  0
LINE
  8
St
  6
CONTINUOUS
 62
    47
 10
86.6468
 20
67.36344
 11
86.6468
 21
31.423293
  0
LINE
  8
St
  6
CONTINUOUS
 62
    47
 10
86.6468
 20
-4.516855
 11
86.6468
 21
31.423293
  0
LINE
  8
St
  6
CONTINUOUS
 62
    47
 10
-2.362935
 20
-81.707882
 11
-46.636415
 21
-81.707882
  0
LINE
  8
St
  6
CONTINUOUS
 62
    47
 10
-90.909895
 20
-81.707882
 11
-46.636415
 21
-81.707882
  0
ENDSEC
  0
EOF
