  0
SECTION
  2
HEADER
  9
$EXTMIN
 10
-210.0
 20
-148.5
  9
$EXTMAX
 10
210.0
 20
148.5
  9
$PDMODE
 70
    32
  9
$PDSIZE
 40
1.5
  9
$LTSCALE
 40
10.0
  0
ENDSEC
  0
SECTION
  2
TABLES
  0
TABLE
  2
LTYPE
 70
    15
  0
LTYPE
  2
CONTINUOUS
 70
    64
  3
実線
 72
    65
 73
     0
 40
0.0
  0
LTYPE
  2
DASHED
 70
    64
  3
破線A
 72
    65
 73
     2
 40
0.6
 49
0.4
 49
-0.2
  0
LTYPE
  2
DASHEDX2
 70
    64
  3
破線B
 72
    65
 73
     2
 40
1.3
 49
0.9
 49
-0.4
  0
LTYPE
  2
DASHDOT
 70
    64
  3
１点鎖線A
 72
    65
 73
     4
 40
0.5375
 49
0.375
 49
-0.05
 49
0.0625
 49
-0.05
  0
LTYPE
  2
DASHDOTX2
 70
    64
  3
１点鎖線B
 72
    65
 73
     4
 40
1.075
 49
0.75
 49
-0.1
 49
0.125
 49
-0.1
  0
LTYPE
  2
DIVIDE2
 70
    64
  3
２点鎖線A
 72
    65
 73
     6
 40
0.5125
 49
0.3
 49
-0.0375
 49
0.05
 49
-0.0375
 49
0.05
 49
-0.0375
  0
LTYPE
  2
DIVIDE
 70
    64
  3
２点鎖線B
 72
    65
 73
     6
 40
1.05
 49
0.55
 49
-0.1
 49
0.1
 49
-0.1
 49
0.1
 49
-0.1
  0
LTYPE
  2
DOT
 70
    64
  3
点線A
 72
    65
 73
     2
 40
0.1125
 49
0.0625
 49
-0.05
  0
LTYPE
  2
DOTX2
 70
    64
  3
点線B
 72
    65
 73
     2
 40
0.275
 49
0.15
 49
-0.125
  0
LTYPE
  2
CONTINUOUS
 70
    64
  3
実線
 72
    65
 73
     0
 40
0.0
  0
LTYPE
  2
CONTINUOUS
 70
    64
  3
実線
 72
    65
 73
     0
 40
0.0
  0
LTYPE
  2
CONTINUOUS
 70
    64
  3
実線
 72
    65
 73
     0
 40
0.0
  0
LTYPE
  2
CONTINUOUS
 70
    64
  3
実線
 72
    65
 73
     0
 40
0.0
  0
LTYPE
  2
CONTINUOUS
 70
    64
  3
実線
 72
    65
 73
     0
 40
0.0
  0
LTYPE
  2
CONTINUOUS
 70
    64
  3
実線
 72
    65
 73
     0
 40
0.0
  0
ENDTAB
  0
TABLE
  2
LAYER
 70
    34
  0
LAYER
  2
通り芯
 70
     0
 62
    15
  6
CONTINUOUS
  0
LAYER
  2
補助線
 70
     0
 62
    16
  6
DOT
  0
LAYER
  2
躯体
 70
     0
 62
    31
  6
CONTINUOUS
  0
LAYER
  2
型材
 70
     0
 62
    32
  6
CONTINUOUS
  0
LAYER
  2
型材断面
 70
     0
 62
    47
  6
CONTINUOUS
  0
LAYER
  2
ガラス
 70
     0
 62
    48
  6
CONTINUOUS
  0
LAYER
  2
ゴム等
 70
     0
 62
    63
  6
CONTINUOUS
  0
LAYER
  2
ボルト／ビス
 70
     0
 62
    64
  6
CONTINUOUS
  0
LAYER
  2
文字
 70
     0
 62
    79
  6
CONTINUOUS
  0
LAYER
  2
寸法
 70
     0
 62
    80
  6
CONTINUOUS
  0
LAYER
  2
ﾊｯﾁﾝｸﾞ
 70
     0
 62
    95
  6
CONTINUOUS
  0
LAYER
  2
別途部材
 70
     0
 62
    96
  6
CONTINUOUS
  0
LAYER
  2
曲げ物
 70
     0
 62
   111
  6
CONTINUOUS
  0
LAYER
  2
鉄骨等
 70
     0
 62
   112
  6
CONTINUOUS
  0
LAYER
  2
St
 70
     0
 62
   127
  6
CONTINUOUS
  0
LAYER
  2
その他部品等
 70
     0
 62
   128
  6
CONTINUOUS
  0
LAYER
  2
ｶﾞｽｹｯﾄ
 70
     0
 62
   143
  6
CONTINUOUS
  0
LAYER
  2
ｽｹｯﾁ
 70
     0
 62
    14
  6
CONTINUOUS
  0
LAYER
  2
0
 70
     0
 62
    17
  6
CONTINUOUS
  0
LAYER
  2
1
 70
     0
 62
    30
  6
CONTINUOUS
  0
LAYER
  2
4
 70
     0
 62
    33
  6
CONTINUOUS
  0
LAYER
  2
ﾚｲﾔ3
 70
     0
 62
    46
  6
CONTINUOUS
  0
LAYER
  2
外形線
 70
     0
 62
    49
  6
CONTINUOUS
  0
LAYER
  2
部品
 70
     0
 62
    14
  6
CONTINUOUS
  0
LAYER
  2
サッシ芯
 70
     0
 62
    17
  6
DASHDOTX2
  0
LAYER
  2
寸法線
 70
     0
 62
    62
  6
CONTINUOUS
  0
LAYER
  2
姿図外形線
 70
     0
 62
    65
  6
CONTINUOUS
  0
LAYER
  2
姿補助線
 70
     0
 62
    30
  6
CONTINUOUS
  0
LAYER
  2
透視線
 70
     0
 62
    78
  6
DOT
  0
LAYER
  2
用紙
 70
     0
 62
    81
  6
CONTINUOUS
  0
LAYER
  2
実線図枠
 70
     0
 62
    94
  6
CONTINUOUS
  0
LAYER
  2
補助図枠
 70
     0
 62
    97
  6
CONTINUOUS
  0
LAYER
  2
建具記号
 70
     0
 62
   110
  6
CONTINUOUS
  0
LAYER
  2
補助文字
 70
     0
 62
   113
  6
CONTINUOUS
  0
ENDTAB
  0
TABLE
  2
STYLE
 70
    10
  0
STYLE
  2
STANDARD
 70
     0
 40
1.0
 41
1.0
 42
1.0
 50
0.0
 71
     0
  3
TXT
  4
BIGFONT
  0
STYLE
  2
TATE
 70
     4
 40
1.0
 41
1.0
 42
1.0
 50
0.0
 71
     0
  3
TXT
  4
BIGFONT
  0
STYLE
  2
TextStyle03
 70
     0
 40
1.0
 41
1.0
 42
1.0
 50
0.0
 71
     0
  3
MONOTXT
  4
BIGFONT
  0
STYLE
  2
TextStyle04
 70
     0
 40
1.0
 41
1.0
 42
1.0
 50
0.0
 71
     0
  3
MONOTXT
  4
BIGFONT
  0
STYLE
  2
TextStyle05
 70
     0
 40
1.0
 41
1.0
 42
1.0
 50
0.0
 71
     0
  3
MONOTXT
  4
BIGFONT
  0
STYLE
  2
TextStyle06
 70
     0
 40
1.0
 41
1.0
 42
1.0
 50
0.0
 71
     0
  3
MONOTXT
  4
BIGFONT
  0
STYLE
  2
TextStyle07
 70
     0
 40
1.0
 41
1.0
 42
1.0
 50
0.0
 71
     0
  3
MONOTXT
  4
BIGFONT
  0
STYLE
  2
TextStyle08
 70
     0
 40
1.0
 41
1.0
 42
1.0
 50
0.0
 71
     0
  3
MONOTXT
  4
BIGFONT
  0
STYLE
  2
TextStyle09
 70
     0
 40
1.0
 41
1.0
 42
1.0
 50
0.0
 71
     0
  3
MONOTXT
  4
BIGFONT
  0
STYLE
  2
TextStyle10
 70
     0
 40
1.0
 41
1.0
 42
1.0
 50
0.0
 71
     0
  3
MONOTXT
  4
BIGFONT
  0
ENDTAB
  0
ENDSEC
  0
SECTION
  2
BLOCKS
  0
BLOCK
  2
*GRP_0001
 70
    65
 10
0.0
 20
0.0
  0
LINE
  8
型材断面
  6
CONTINUOUS
 10
195.0
 20
133.5
 11
195.0
 21
-133.5
  0
LINE
  8
型材断面
  6
CONTINUOUS
 10
195.0
 20
-133.5
 11
-185.0
 21
-133.5
  0
LINE
  8
型材断面
  6
CONTINUOUS
 10
-185.0
 20
-133.5
 11
-185.0
 21
133.5
  0
LINE
  8
型材断面
  6
CONTINUOUS
 10
195.0
 20
133.5
 11
-185.0
 21
133.5
  0
LINE
  8
型材断面
  6
CONTINUOUS
 10
145.0
 20
-133.5
 11
145.0
 21
-118.5
  0
LINE
  8
型材断面
  6
CONTINUOUS
 10
195.0
 20
-118.5
 11
145.0
 21
-118.5
  0
ENDBLK
  0
BLOCK
  2
*DIM_0002
 70
    65
 10
0.0
 20
0.0
  0
LINE
  8
寸法
  6
BYBLOCK
 62
     0
 10
0.668223
 20
-67.95793
 11
37.30454
 21
-67.95793
  0
LINE
  8
寸法
  6
BYBLOCK
 62
     0
 10
37.30454
 20
-79.624597
 11
37.30454
 21
-67.95793
  0
POINT
  8
寸法
 62
     0
 10
37.30454
 20
-79.624597
  0
POINT
  8
寸法
 62
     0
 10
37.30454
 20
-67.95793
  0
TEXT
  7
TextStyle03
  8
寸法
  6
CONTINUOUS
 62
     0
 10
36.975
 20
-76.2375
  1
350
 40
3.0
 50
90.0
 72
     5
 11
36.975
 21
-71.3625
  0
ENDBLK
  0
BLOCK
  2
*DIM_0003
 70
    65
 10
0.0
 20
0.0
  0
LINE
  8
寸法
  6
BYBLOCK
 62
     0
 10
21.33489
 20
-22.536362
 11
-78.66511
 21
-22.536362
  0
POINT
  8
寸法
 62
     0
 10
21.33489
 20
-22.536362
  0
POINT
  8
寸法
 62
     0
 10
-78.66511
 20
-22.536362
  0
TEXT
  7
TextStyle03
  8
寸法
  6
CONTINUOUS
 62
     0
 10
-40.39375
 20
-22.175
  1
呼称寸法　3000
 40
3.0
 72
     5
 11
-16.95625
 21
-22.175
  0
ENDBLK
  0
BLOCK
  2
*DIM_0004
 70
    65
 10
0.0
 20
0.0
  0
LINE
  8
寸法
  6
BYBLOCK
 62
     0
 10
-61.998442
 20
9.76892
 11
-61.998442
 21
5.198027
  0
LINE
  8
寸法
  6
BYBLOCK
 62
     0
 10
4.668223
 20
9.76892
 11
4.668223
 21
5.198027
  0
LINE
  8
寸法
  6
BYBLOCK
 62
     0
 10
-61.998442
 20
5.198027
 11
4.668223
 21
5.198027
  0
POINT
  8
寸法
 62
     0
 10
-61.998442
 20
5.198027
  0
POINT
  8
寸法
 62
     0
 10
4.668223
 20
5.198027
  0
TEXT
  7
TextStyle03
  8
寸法
  6
CONTINUOUS
 62
     0
 10
-31.95625
 20
5.55
  1
2000
 40
3.0
 72
     5
 11
-25.39375
 21
5.55
  0
ENDBLK
  0
BLOCK
  2
*DIM_0005
 70
    65
 10
0.0
 20
0.0
  0
LINE
  8
寸法
  6
BYBLOCK
 62
     0
 10
55.35454
 20
13.399048
 11
55.35454
 21
56.73238
  0
POINT
  8
寸法
 62
     0
 10
55.35454
 20
13.399048
  0
POINT
  8
寸法
 62
     0
 10
55.35454
 20
56.73238
  0
TEXT
  7
TextStyle03
  8
寸法
  6
CONTINUOUS
 62
     0
 10
55.025
 20
23.33125
  1
呼称寸法　1300
 40
3.0
 50
90.0
 72
     5
 11
55.025
 21
46.76875
  0
ENDBLK
  0
BLOCK
  2
*DIM_0006
 70
    65
 10
0.0
 20
0.0
  0
LINE
  8
寸法
  6
BYBLOCK
 62
     0
 10
99.201488
 20
36.065715
 11
99.201488
 21
72.668433
  0
LINE
  8
寸法
  6
BYBLOCK
 62
     0
 10
110.868155
 20
72.668433
 11
99.201488
 21
72.668433
  0
POINT
  8
寸法
 62
     0
 10
99.201488
 20
72.668433
  0
TEXT
  7
TextStyle03
  8
寸法
  6
CONTINUOUS
 62
     0
 10
102.6375
 20
73.025
  1
350
 40
3.0
 72
     5
 11
107.5125
 21
73.025
  0
ENDBLK
  0
BLOCK
  2
*DIM_0007
 70
    65
 10
0.0
 20
0.0
  0
LINE
  8
寸法
  6
BYBLOCK
 62
     0
 10
110.868155
 20
59.39905
 11
110.868155
 21
72.668433
  0
LINE
  8
寸法
  6
BYBLOCK
 62
     0
 10
112.95144
 20
60.339195
 11
112.95144
 21
72.668433
  0
LINE
  8
寸法
  6
BYBLOCK
 62
     0
 10
110.868155
 20
72.668433
 11
112.95144
 21
72.668433
  0
POINT
  8
寸法
 62
     0
 10
110.868155
 20
72.668433
  0
POINT
  8
寸法
 62
     0
 10
112.95144
 20
72.668433
  0
TEXT
  7
TextStyle03
  8
寸法
  6
CONTINUOUS
 62
     0
 10
115.36875
 20
73.025
  1
62.5
 40
3.0
 72
     5
 11
121.93125
 21
73.025
  0
ENDBLK
  0
BLOCK
  2
*DIM_0008
 70
    65
 10
0.0
 20
0.0
  0
LINE
  8
寸法
  6
BYBLOCK
 62
     0
 10
111.45144
 20
59.339195
 11
55.35454
 21
59.339195
  0
LINE
  8
寸法
  6
BYBLOCK
 62
     0
 10
55.35454
 20
56.73238
 11
55.35454
 21
59.339195
  0
POINT
  8
寸法
 62
     0
 10
55.35454
 20
56.73238
  0
POINT
  8
寸法
 62
     0
 10
55.35454
 20
59.339195
  0
TEXT
  7
TextStyle03
  8
寸法
  6
CONTINUOUS
 62
     0
 10
54.975
 20
61.49375
  1
78.2
 40
3.0
 50
90.0
 72
     5
 11
54.975
 21
68.05625
  0
ENDBLK
  0
BLOCK
  2
*DIM_0009
 70
    65
 10
0.0
 20
0.0
  0
LINE
  8
寸法
  6
BYBLOCK
 62
     0
 10
111.45144
 20
10.792235
 11
55.35454
 21
10.792235
  0
LINE
  8
寸法
  6
BYBLOCK
 62
     0
 10
55.35454
 20
13.399048
 11
55.35454
 21
10.792235
  0
POINT
  8
寸法
 62
     0
 10
55.35454
 20
13.399048
  0
POINT
  8
寸法
 62
     0
 10
55.35454
 20
10.792235
  0
TEXT
  7
TextStyle03
  8
寸法
  6
CONTINUOUS
 62
     0
 10
54.975
 20
2.04375
  1
78.2
 40
3.0
 50
90.0
 72
     5
 11
54.975
 21
8.60625
  0
ENDBLK
  0
BLOCK
  2
*DIM_0010
 70
    65
 10
0.0
 20
0.0
  0
LINE
  8
寸法
  6
BYBLOCK
 62
     0
 10
24.001557
 20
-79.624597
 11
37.30454
 21
-79.624597
  0
LINE
  8
寸法
  6
BYBLOCK
 62
     0
 10
24.941703
 20
-81.707882
 11
37.30454
 21
-81.707882
  0
LINE
  8
寸法
  6
BYBLOCK
 62
     0
 10
37.30454
 20
-79.624597
 11
37.30454
 21
-81.707882
  0
POINT
  8
寸法
 62
     0
 10
37.30454
 20
-79.624597
  0
POINT
  8
寸法
 62
     0
 10
37.30454
 20
-81.707882
  0
TEXT
  7
TextStyle03
  8
寸法
  6
CONTINUOUS
 62
     0
 10
36.925
 20
-90.70625
  1
62.5
 40
3.0
 50
90.0
 72
     5
 11
36.925
 21
-84.14375
  0
ENDBLK
  0
BLOCK
  2
*DIM_0011
 70
    65
 10
0.0
 20
0.0
  0
LINE
  8
寸法
  6
BYBLOCK
 62
     0
 10
23.941703
 20
-80.207882
 11
23.941703
 21
-22.536362
  0
LINE
  8
寸法
  6
BYBLOCK
 62
     0
 10
21.33489
 20
-22.536362
 11
23.941703
 21
-22.536362
  0
POINT
  8
寸法
 62
     0
 10
21.33489
 20
-22.536362
  0
POINT
  8
寸法
 62
     0
 10
23.941703
 20
-22.536362
  0
TEXT
  7
TextStyle03
  8
寸法
  6
CONTINUOUS
 62
     0
 10
26.09375
 20
-22.175
  1
78.2
 40
3.0
 72
     5
 11
32.65625
 21
-22.175
  0
ENDBLK
  0
BLOCK
  2
*DIM_0012
 70
    65
 10
0.0
 20
0.0
  0
LINE
  8
寸法
  6
BYBLOCK
 62
     0
 10
-81.271922
 20
-80.207882
 11
-81.271922
 21
-22.536362
  0
LINE
  8
寸法
  6
BYBLOCK
 62
     0
 10
-78.66511
 20
-22.536362
 11
-81.271922
 21
-22.536362
  0
POINT
  8
寸法
 62
     0
 10
-78.66511
 20
-22.536362
  0
POINT
  8
寸法
 62
     0
 10
-81.271922
 20
-22.536362
  0
TEXT
  7
TextStyle03
  8
寸法
  6
CONTINUOUS
 62
     0
 10
-90.00625
 20
-22.175
  1
78.2
 40
3.0
 72
     5
 11
-83.44375
 21
-22.175
  0
ENDBLK
  0
BLOCK
  2
*GRP_0013
 70
    65
 10
0.0
 20
0.0
  0
LINE
  8
別途部材
  6
CONTINUOUS
 62
    96
 10
-80.331775
 20
-79.624597
 11
-80.731775
 21
-80.624597
  0
LINE
  8
別途部材
  6
CONTINUOUS
 10
-80.731775
 20
-80.624597
 11
-28.66511
 21
-80.624597
  0
LINE
  8
別途部材
  6
CONTINUOUS
 62
    96
 10
-80.331775
 20
-79.624597
 11
-28.66511
 21
-79.624597
  0
LINE
  8
別途部材
  6
CONTINUOUS
 10
-29.16511
 20
-66.95793
 11
-30.16511
 21
-67.95793
  0
LINE
  8
別途部材
  6
CONTINUOUS
 10
-31.16511
 20
-67.95793
 11
-32.16511
 21
-66.95793
  0
LINE
  8
別途部材
  6
CONTINUOUS
 10
-33.16511
 20
-66.95793
 11
-34.16511
 21
-67.95793
  0
LINE
  8
別途部材
  6
CONTINUOUS
 10
-32.16511
 20
-66.95793
 11
-33.16511
 21
-66.95793
  0
LINE
  8
別途部材
  6
CONTINUOUS
 10
-29.16511
 20
-66.95793
 11
-28.66511
 21
-66.95793
  0
LINE
  8
別途部材
  6
CONTINUOUS
 10
-35.16511
 20
-67.95793
 11
-36.16511
 21
-66.95793
  0
LINE
  8
別途部材
  6
CONTINUOUS
 10
-37.16511
 20
-66.95793
 11
-38.16511
 21
-67.95793
  0
LINE
  8
別途部材
  6
CONTINUOUS
 10
-36.16511
 20
-66.95793
 11
-37.16511
 21
-66.95793
  0
LINE
  8
別途部材
  6
CONTINUOUS
 10
-39.16511
 20
-67.95793
 11
-40.16511
 21
-66.95793
  0
LINE
  8
別途部材
  6
CONTINUOUS
 10
-41.16511
 20
-66.95793
 11
-42.16511
 21
-67.95793
  0
LINE
  8
別途部材
  6
CONTINUOUS
 10
-40.16511
 20
-66.95793
 11
-41.16511
 21
-66.95793
  0
LINE
  8
別途部材
  6
CONTINUOUS
 10
-43.16511
 20
-67.95793
 11
-44.16511
 21
-66.95793
  0
LINE
  8
別途部材
  6
CONTINUOUS
 10
-45.16511
 20
-66.95793
 11
-46.16511
 21
-67.95793
  0
LINE
  8
別途部材
  6
CONTINUOUS
 10
-44.16511
 20
-66.95793
 11
-45.16511
 21
-66.95793
  0
LINE
  8
別途部材
  6
CONTINUOUS
 10
-47.16511
 20
-67.95793
 11
-48.16511
 21
-66.95793
  0
LINE
  8
別途部材
  6
CONTINUOUS
 10
-49.16511
 20
-66.95793
 11
-50.16511
 21
-67.95793
  0
LINE
  8
別途部材
  6
CONTINUOUS
 10
-48.16511
 20
-66.95793
 11
-49.16511
 21
-66.95793
  0
LINE
  8
別途部材
  6
CONTINUOUS
 10
-51.16511
 20
-67.95793
 11
-52.16511
 21
-66.95793
  0
LINE
  8
別途部材
  6
CONTINUOUS
 10
-53.16511
 20
-66.95793
 11
-54.16511
 21
-67.95793
  0
LINE
  8
別途部材
  6
CONTINUOUS
 10
-52.16511
 20
-66.95793
 11
-53.16511
 21
-66.95793
  0
LINE
  8
別途部材
  6
CONTINUOUS
 10
-55.16511
 20
-67.95793
 11
-56.16511
 21
-66.95793
  0
LINE
  8
別途部材
  6
CONTINUOUS
 10
-57.16511
 20
-66.95793
 11
-58.16511
 21
-67.95793
  0
LINE
  8
別途部材
  6
CONTINUOUS
 10
-56.16511
 20
-66.95793
 11
-57.16511
 21
-66.95793
  0
LINE
  8
別途部材
  6
CONTINUOUS
 10
-54.16511
 20
-67.95793
 11
-55.16511
 21
-67.95793
  0
LINE
  8
別途部材
  6
CONTINUOUS
 10
-50.16511
 20
-67.95793
 11
-51.16511
 21
-67.95793
  0
LINE
  8
別途部材
  6
CONTINUOUS
 10
-46.16511
 20
-67.95793
 11
-47.16511
 21
-67.95793
  0
LINE
  8
別途部材
  6
CONTINUOUS
 10
-42.16511
 20
-67.95793
 11
-43.16511
 21
-67.95793
  0
LINE
  8
別途部材
  6
CONTINUOUS
 10
-38.16511
 20
-67.95793
 11
-39.16511
 21
-67.95793
  0
LINE
  8
別途部材
  6
CONTINUOUS
 10
-34.16511
 20
-67.95793
 11
-35.16511
 21
-67.95793
  0
LINE
  8
別途部材
  6
CONTINUOUS
 10
-31.16511
 20
-67.95793
 11
-30.16511
 21
-67.95793
  0
LINE
  8
別途部材
  6
CONTINUOUS
 10
-51.16511
 20
-67.95793
 11
-51.16511
 21
-79.624597
  0
LINE
  8
別途部材
  6
CONTINUOUS
 10
-45.16511
 20
-66.95793
 11
-45.16511
 21
-79.624597
  0
LINE
  8
別途部材
  6
CONTINUOUS
 10
-44.16511
 20
-66.95793
 11
-44.16511
 21
-79.624597
  0
LINE
  8
別途部材
  6
CONTINUOUS
 10
-34.16511
 20
-67.95793
 11
-34.16511
 21
-79.624597
  0
LINE
  8
別途部材
  6
CONTINUOUS
 10
-29.16511
 20
-66.95793
 11
-29.16511
 21
-79.624597
  0
LINE
  8
別途部材
  6
CONTINUOUS
 10
-30.16511
 20
-67.95793
 11
-30.16511
 21
-79.624597
  0
LINE
  8
別途部材
  6
CONTINUOUS
 10
-32.16511
 20
-66.95793
 11
-32.16511
 21
-79.624597
  0
LINE
  8
別途部材
  6
CONTINUOUS
 10
-33.16511
 20
-66.95793
 11
-33.16511
 21
-79.624597
  0
LINE
  8
別途部材
  6
CONTINUOUS
 10
-35.16511
 20
-67.95793
 11
-35.16511
 21
-79.624597
  0
LINE
  8
別途部材
  6
CONTINUOUS
 10
-46.16511
 20
-67.95793
 11
-46.16511
 21
-79.624597
  0
LINE
  8
別途部材
  6
CONTINUOUS
 10
-47.16511
 20
-67.95793
 11
-47.16511
 21
-79.624597
  0
LINE
  8
別途部材
  6
CONTINUOUS
 10
-52.16511
 20
-66.95793
 11
-52.16511
 21
-79.624597
  0
LINE
  8
別途部材
  6
CONTINUOUS
 10
-54.16511
 20
-67.95793
 11
-54.16511
 21
-79.624597
  0
LINE
  8
別途部材
  6
CONTINUOUS
 10
-57.16511
 20
-66.95793
 11
-57.16511
 21
-79.624597
  0
LINE
  8
別途部材
  6
CONTINUOUS
 10
-53.16511
 20
-66.95793
 11
-53.16511
 21
-79.624597
  0
LINE
  8
別途部材
  6
CONTINUOUS
 10
-55.16511
 20
-67.95793
 11
-55.16511
 21
-79.624597
  0
LINE
  8
別途部材
  6
CONTINUOUS
 10
-58.16511
 20
-67.95793
 11
-58.16511
 21
-79.624597
  0
LINE
  8
別途部材
  6
CONTINUOUS
 10
-49.16511
 20
-66.95793
 11
-49.16511
 21
-79.624597
  0
LINE
  8
別途部材
  6
CONTINUOUS
 10
-48.16511
 20
-66.95793
 11
-48.16511
 21
-79.624597
  0
LINE
  8
別途部材
  6
CONTINUOUS
 10
-50.16511
 20
-67.95793
 11
-50.16511
 21
-79.624597
  0
LINE
  8
別途部材
  6
CONTINUOUS
 10
-56.16511
 20
-66.95793
 11
-56.16511
 21
-79.624597
  0
LINE
  8
別途部材
  6
CONTINUOUS
 10
-42.16511
 20
-67.95793
 11
-42.16511
 21
-79.624597
  0
LINE
  8
別途部材
  6
CONTINUOUS
 10
-43.16511
 20
-67.95793
 11
-43.16511
 21
-79.624597
  0
LINE
  8
別途部材
  6
CONTINUOUS
 10
-41.16511
 20
-66.95793
 11
-41.16511
 21
-79.624597
  0
LINE
  8
別途部材
  6
CONTINUOUS
 10
-39.16511
 20
-67.95793
 11
-39.16511
 21
-79.624597
  0
LINE
  8
別途部材
  6
CONTINUOUS
 10
-40.16511
 20
-66.95793
 11
-40.16511
 21
-79.624597
  0
LINE
  8
別途部材
  6
CONTINUOUS
 10
-38.16511
 20
-67.95793
 11
-38.16511
 21
-79.624597
  0
LINE
  8
別途部材
  6
CONTINUOUS
 10
-36.16511
 20
-66.95793
 11
-36.16511
 21
-79.624597
  0
LINE
  8
別途部材
  6
CONTINUOUS
 10
-37.16511
 20
-66.95793
 11
-37.16511
 21
-79.624597
  0
LINE
  8
別途部材
  6
CONTINUOUS
 10
-31.16511
 20
-67.95793
 11
-31.16511
 21
-79.624597
  0
ARC
  8
別途部材
  6
CONTINUOUS
 10
-56.998441
 20
-93.910311
 40
25.952382
 50
92.576553
 51
146.601512
  0
LINE
  8
別途部材
  6
CONTINUOUS
 62
    96
 10
23.001557
 20
-79.624597
 11
23.401557
 21
-80.624597
  0
LINE
  8
別途部材
  6
CONTINUOUS
 10
23.401557
 20
-80.624597
 11
-28.66511
 21
-80.624597
  0
LINE
  8
別途部材
  6
CONTINUOUS
 62
    96
 10
23.001557
 20
-79.624597
 11
-28.66511
 21
-79.624597
  0
LINE
  8
別途部材
  6
CONTINUOUS
 10
-28.16511
 20
-66.95793
 11
-27.16511
 21
-67.95793
  0
LINE
  8
別途部材
  6
CONTINUOUS
 10
-26.16511
 20
-67.95793
 11
-25.16511
 21
-66.95793
  0
LINE
  8
別途部材
  6
CONTINUOUS
 10
-24.16511
 20
-66.95793
 11
-23.16511
 21
-67.95793
  0
LINE
  8
別途部材
  6
CONTINUOUS
 10
-25.16511
 20
-66.95793
 11
-24.16511
 21
-66.95793
  0
LINE
  8
別途部材
  6
CONTINUOUS
 10
-28.16511
 20
-66.95793
 11
-28.66511
 21
-66.95793
  0
LINE
  8
別途部材
  6
CONTINUOUS
 10
-22.16511
 20
-67.95793
 11
-21.16511
 21
-66.95793
  0
LINE
  8
別途部材
  6
CONTINUOUS
 10
-20.16511
 20
-66.95793
 11
-19.16511
 21
-67.95793
  0
LINE
  8
別途部材
  6
CONTINUOUS
 10
-21.16511
 20
-66.95793
 11
-20.16511
 21
-66.95793
  0
LINE
  8
別途部材
  6
CONTINUOUS
 10
-18.16511
 20
-67.95793
 11
-17.16511
 21
-66.95793
  0
LINE
  8
別途部材
  6
CONTINUOUS
 10
-16.16511
 20
-66.95793
 11
-15.16511
 21
-67.95793
  0
LINE
  8
別途部材
  6
CONTINUOUS
 10
-17.16511
 20
-66.95793
 11
-16.16511
 21
-66.95793
  0
LINE
  8
別途部材
  6
CONTINUOUS
 10
-14.16511
 20
-67.95793
 11
-13.16511
 21
-66.95793
  0
LINE
  8
別途部材
  6
CONTINUOUS
 10
-12.16511
 20
-66.95793
 11
-11.16511
 21
-67.95793
  0
LINE
  8
別途部材
  6
CONTINUOUS
 10
-13.16511
 20
-66.95793
 11
-12.16511
 21
-66.95793
  0
LINE
  8
別途部材
  6
CONTINUOUS
 10
-10.16511
 20
-67.95793
 11
-9.16511
 21
-66.95793
  0
LINE
  8
別途部材
  6
CONTINUOUS
 10
-8.16511
 20
-66.95793
 11
-7.16511
 21
-67.95793
  0
LINE
  8
別途部材
  6
CONTINUOUS
 10
-9.16511
 20
-66.95793
 11
-8.16511
 21
-66.95793
  0
LINE
  8
別途部材
  6
CONTINUOUS
 10
-6.16511
 20
-67.95793
 11
-5.16511
 21
-66.95793
  0
LINE
  8
別途部材
  6
CONTINUOUS
 10
-4.16511
 20
-66.95793
 11
-3.16511
 21
-67.95793
  0
LINE
  8
別途部材
  6
CONTINUOUS
 10
-5.16511
 20
-66.95793
 11
-4.16511
 21
-66.95793
  0
LINE
  8
別途部材
  6
CONTINUOUS
 10
-2.16511
 20
-67.95793
 11
-1.16511
 21
-66.95793
  0
LINE
  8
別途部材
  6
CONTINUOUS
 10
-0.16511
 20
-66.95793
 11
0.83489
 21
-67.95793
  0
LINE
  8
別途部材
  6
CONTINUOUS
 10
-1.16511
 20
-66.95793
 11
-0.16511
 21
-66.95793
  0
LINE
  8
別途部材
  6
CONTINUOUS
 10
-3.16511
 20
-67.95793
 11
-2.16511
 21
-67.95793
  0
LINE
  8
別途部材
  6
CONTINUOUS
 10
-7.16511
 20
-67.95793
 11
-6.16511
 21
-67.95793
  0
LINE
  8
別途部材
  6
CONTINUOUS
 10
-11.16511
 20
-67.95793
 11
-10.16511
 21
-67.95793
  0
LINE
  8
別途部材
  6
CONTINUOUS
 10
-15.16511
 20
-67.95793
 11
-14.16511
 21
-67.95793
  0
LINE
  8
別途部材
  6
CONTINUOUS
 10
-19.16511
 20
-67.95793
 11
-18.16511
 21
-67.95793
  0
LINE
  8
別途部材
  6
CONTINUOUS
 10
-23.16511
 20
-67.95793
 11
-22.16511
 21
-67.95793
  0
LINE
  8
別途部材
  6
CONTINUOUS
 10
-26.16511
 20
-67.95793
 11
-27.16511
 21
-67.95793
  0
LINE
  8
別途部材
  6
CONTINUOUS
 10
-6.16511
 20
-67.95793
 11
-6.16511
 21
-79.624597
  0
LINE
  8
別途部材
  6
CONTINUOUS
 10
-12.16511
 20
-66.95793
 11
-12.16511
 21
-79.624597
  0
LINE
  8
別途部材
  6
CONTINUOUS
 10
-13.16511
 20
-66.95793
 11
-13.16511
 21
-79.624597
  0
LINE
  8
別途部材
  6
CONTINUOUS
 10
-23.16511
 20
-67.95793
 11
-23.16511
 21
-79.624597
  0
LINE
  8
別途部材
  6
CONTINUOUS
 10
-28.16511
 20
-66.95793
 11
-28.16511
 21
-79.624597
  0
LINE
  8
別途部材
  6
CONTINUOUS
 10
-27.16511
 20
-67.95793
 11
-27.16511
 21
-79.624597
  0
LINE
  8
別途部材
  6
CONTINUOUS
 10
-25.16511
 20
-66.95793
 11
-25.16511
 21
-79.624597
  0
LINE
  8
別途部材
  6
CONTINUOUS
 10
-24.16511
 20
-66.95793
 11
-24.16511
 21
-79.624597
  0
LINE
  8
別途部材
  6
CONTINUOUS
 10
-22.16511
 20
-67.95793
 11
-22.16511
 21
-79.624597
  0
LINE
  8
別途部材
  6
CONTINUOUS
 10
-11.16511
 20
-67.95793
 11
-11.16511
 21
-79.624597
  0
LINE
  8
別途部材
  6
CONTINUOUS
 10
-10.16511
 20
-67.95793
 11
-10.16511
 21
-79.624597
  0
LINE
  8
別途部材
  6
CONTINUOUS
 10
-5.16511
 20
-66.95793
 11
-5.16511
 21
-79.624597
  0
LINE
  8
別途部材
  6
CONTINUOUS
 10
-3.16511
 20
-67.95793
 11
-3.16511
 21
-79.624597
  0
LINE
  8
別途部材
  6
CONTINUOUS
 10
-0.16511
 20
-66.95793
 11
-0.16511
 21
-79.624597
  0
LINE
  8
別途部材
  6
CONTINUOUS
 10
-4.16511
 20
-66.95793
 11
-4.16511
 21
-79.624597
  0
LINE
  8
別途部材
  6
CONTINUOUS
 10
-2.16511
 20
-67.95793
 11
-2.16511
 21
-79.624597
  0
LINE
  8
別途部材
  6
CONTINUOUS
 10
0.83489
 20
-67.95793
 11
0.83489
 21
-79.624597
  0
LINE
  8
別途部材
  6
CONTINUOUS
 10
-8.16511
 20
-66.95793
 11
-8.16511
 21
-79.624597
  0
LINE
  8
別途部材
  6
CONTINUOUS
 10
-9.16511
 20
-66.95793
 11
-9.16511
 21
-79.624597
  0
LINE
  8
別途部材
  6
CONTINUOUS
 10
-7.16511
 20
-67.95793
 11
-7.16511
 21
-79.624597
  0
LINE
  8
別途部材
  6
CONTINUOUS
 10
-1.16511
 20
-66.95793
 11
-1.16511
 21
-79.624597
  0
LINE
  8
別途部材
  6
CONTINUOUS
 10
-15.16511
 20
-67.95793
 11
-15.16511
 21
-79.624597
  0
LINE
  8
別途部材
  6
CONTINUOUS
 10
-14.16511
 20
-67.95793
 11
-14.16511
 21
-79.624597
  0
LINE
  8
別途部材
  6
CONTINUOUS
 10
-16.16511
 20
-66.95793
 11
-16.16511
 21
-79.624597
  0
LINE
  8
別途部材
  6
CONTINUOUS
 10
-18.16511
 20
-67.95793
 11
-18.16511
 21
-79.624597
  0
LINE
  8
別途部材
  6
CONTINUOUS
 10
-17.16511
 20
-66.95793
 11
-17.16511
 21
-79.624597
  0
LINE
  8
別途部材
  6
CONTINUOUS
 10
-19.16511
 20
-67.95793
 11
-19.16511
 21
-79.624597
  0
LINE
  8
別途部材
  6
CONTINUOUS
 10
-21.16511
 20
-66.95793
 11
-21.16511
 21
-79.624597
  0
LINE
  8
別途部材
  6
CONTINUOUS
 10
-20.16511
 20
-66.95793
 11
-20.16511
 21
-79.624597
  0
LINE
  8
別途部材
  6
CONTINUOUS
 10
-26.16511
 20
-67.95793
 11
-26.16511
 21
-79.624597
  0
ARC
  8
別途部材
  6
CONTINUOUS
 10
-0.331777
 20
-93.910311
 40
25.952382
 50
33.398488
 51
87.423447
  0
ENDBLK
  0
BLOCK
  2
*DIM_0014
 70
    65
 10
0.0
 20
0.0
  0
LINE
  8
寸法
  6
BYBLOCK
 62
     0
 10
145.328765
 20
-45.156955
 11
155.941423
 21
-45.156955
  0
LINE
  8
寸法
  6
BYBLOCK
 62
     0
 10
145.328765
 20
-87.823622
 11
155.941423
 21
-87.823622
  0
LINE
  8
寸法
  6
BYBLOCK
 62
     0
 10
155.941423
 20
-45.156955
 11
155.941423
 21
-87.823622
  0
POINT
  8
寸法
 62
     0
 10
155.941423
 20
-45.156955
  0
POINT
  8
寸法
 62
     0
 10
155.941423
 20
-87.823622
  0
TEXT
  7
TextStyle03
  8
寸法
  6
CONTINUOUS
 62
     0
 10
155.55
 20
-69.78125
  1
1280
 40
3.0
 50
90.0
 72
     5
 11
155.55
 21
-63.21875
  0
ENDBLK
  0
BLOCK
  2
*DIM_0015
 70
    65
 10
0.0
 20
0.0
  0
LINE
  8
寸法
  6
BYBLOCK
 62
     0
 10
-81.66511
 20
23.399048
 11
-110.610275
 21
23.399048
  0
LINE
  8
寸法
  6
BYBLOCK
 62
     0
 10
-81.66511
 20
46.732382
 11
-110.610275
 21
46.732382
  0
LINE
  8
寸法
  6
BYBLOCK
 62
     0
 10
-110.610275
 20
23.399048
 11
-110.610275
 21
46.732382
  0
POINT
  8
寸法
 62
     0
 10
-110.610275
 20
23.399048
  0
POINT
  8
寸法
 62
     0
 10
-110.610275
 20
46.732382
  0
TEXT
  7
TextStyle03
  8
寸法
  6
CONTINUOUS
 62
     0
 10
-111.05
 20
32.6125
  1
700
 40
3.0
 50
90.0
 72
     5
 11
-111.05
 21
37.4875
  0
ENDBLK
  0
BLOCK
  2
*DIM_0016
 70
    65
 10
0.0
 20
0.0
  0
LINE
  8
寸法
  6
BYBLOCK
 62
     0
 10
-68.66511
 20
59.73238
 11
-68.66511
 21
88.840452
  0
LINE
  8
寸法
  6
BYBLOCK
 62
     0
 10
-41.998442
 20
59.73238
 11
-41.998442
 21
88.840452
  0
LINE
  8
寸法
  6
BYBLOCK
 62
     0
 10
-68.66511
 20
88.840452
 11
-41.998442
 21
88.840452
  0
POINT
  8
寸法
 62
     0
 10
-68.66511
 20
88.840452
  0
POINT
  8
寸法
 62
     0
 10
-41.998442
 20
88.840452
  0
TEXT
  7
TextStyle03
  8
寸法
  6
CONTINUOUS
 62
     0
 10
-57.7875
 20
89.2
  1
800
 40
3.0
 72
     5
 11
-52.9125
 21
89.2
  0
ENDBLK
  0
BLOCK
  2
*DIM_0017
 70
    65
 10
0.0
 20
0.0
  0
LINE
  8
寸法
  6
BYBLOCK
 62
     0
 10
-15.331778
 20
59.73238
 11
-15.331778
 21
88.840452
  0
LINE
  8
寸法
  6
BYBLOCK
 62
     0
 10
-41.998442
 20
88.840452
 11
-15.331778
 21
88.840452
  0
POINT
  8
寸法
 62
     0
 10
-15.331778
 20
88.840452
  0
TEXT
  7
TextStyle03
  8
寸法
  6
CONTINUOUS
 62
     0
 10
-31.1125
 20
89.2
  1
800
 40
3.0
 72
     5
 11
-26.2375
 21
89.2
  0
ENDBLK
  0
BLOCK
  2
*DIM_0018
 70
    65
 10
0.0
 20
0.0
  0
LINE
  8
寸法
  6
BYBLOCK
 62
     0
 10
11.33489
 20
59.73238
 11
11.33489
 21
88.840452
  0
LINE
  8
寸法
  6
BYBLOCK
 62
     0
 10
-15.331778
 20
88.840452
 11
11.33489
 21
88.840452
  0
POINT
  8
寸法
 62
     0
 10
11.33489
 20
88.840452
  0
TEXT
  7
TextStyle03
  8
寸法
  6
CONTINUOUS
 62
     0
 10
-4.4375
 20
89.2
  1
800
 40
3.0
 72
     5
 11
0.4375
 21
89.2
  0
ENDBLK
  0
BLOCK
  2
*DIM_0019
 70
    65
 10
0.0
 20
0.0
  0
LINE
  8
寸法
  6
CONTINUOUS
 10
142.773207
 20
-40.156955
 11
142.773207
 21
-33.196043
  0
LINE
  8
寸法
  6
CONTINUOUS
 10
110.39654
 20
-40.156955
 11
110.39654
 21
-33.196043
  0
LINE
  8
寸法
  6
CONTINUOUS
 10
142.773207
 20
-33.196043
 11
110.39654
 21
-33.196043
  0
POINT
  8
寸法
 10
142.773207
 20
-33.196043
  0
POINT
  8
寸法
 10
110.39654
 20
-33.196043
  0
TEXT
  7
TextStyle03
  8
寸法
  6
CONTINUOUS
 10
122.45
 20
-32.825
  1
971.3
 40
3.0
 72
     5
 11
130.7
 21
-32.825
  0
ENDBLK
  0
BLOCK
  2
*GRP_0020
 70
    65
 10
0.0
 20
0.0
  0
LINE
  8
ボルト／ビス
  6
CONTINUOUS
 10
-79.331778
 20
-79.624597
 11
-79.331778
 21
-79.15793
  0
LINE
  8
ボルト／ビス
  6
CONTINUOUS
 10
-79.698445
 20
-79.624597
 11
-79.698445
 21
-79.55793
  0
LINE
  8
ボルト／ビス
  6
CONTINUOUS
 10
-79.698445
 20
-79.55793
 11
-78.96511
 21
-79.55793
  0
LINE
  8
ボルト／ビス
  6
CONTINUOUS
 10
-78.96511
 20
-79.55793
 11
-78.96511
 21
-79.624597
  0
LINE
  8
ボルト／ビス
  6
CONTINUOUS
 10
-79.698445
 20
-79.624597
 11
-78.96511
 21
-79.624597
  0
LINE
  8
ボルト／ビス
  6
CONTINUOUS
 10
-79.631778
 20
-79.524597
 11
-79.631778
 21
-79.55793
  0
LINE
  8
ボルト／ビス
  6
CONTINUOUS
 10
-79.631778
 20
-79.524597
 11
-79.031778
 21
-79.524597
  0
LINE
  8
ボルト／ビス
  6
CONTINUOUS
 10
-79.031778
 20
-79.524597
 11
-79.031778
 21
-79.55793
  0
LINE
  8
ボルト／ビス
  6
CONTINUOUS
 62
    64
 10
-79.492152
 20
-79.324597
 11
-79.524227
 21
-79.336272
  0
ARC
  8
ボルト／ビス
  6
CONTINUOUS
 62
    64
 10
-79.476114
 20
-79.429575
 40
0.104978
 50
62.721967
 51
90.0
  0
ARC
  8
ボルト／ビス
  6
CONTINUOUS
 62
    64
 10
-79.331776
 20
-79.726999
 40
0.402402
 50
76.165002
 51
103.834985
  0
LINE
  8
ボルト／ビス
  6
CONTINUOUS
 62
    64
 10
-79.171403
 20
-79.324597
 11
-79.139328
 21
-79.336272
  0
ARC
  8
ボルト／ビス
  6
CONTINUOUS
 62
    64
 10
-79.187438
 20
-79.429575
 40
0.104978
 50
90.0
 51
117.278033
  0
LINE
  8
ボルト／ビス
  6
CONTINUOUS
 62
    64
 10
-79.492152
 20
-79.324597
 11
-79.171403
 21
-79.324597
  0
LINE
  8
ボルト／ビス
  6
CONTINUOUS
 62
    64
 10
-79.139328
 20
-79.336272
 11
-79.139328
 21
-79.45793
  0
LINE
  8
ボルト／ビス
  6
CONTINUOUS
 62
    64
 10
-79.235552
 20
-79.336272
 11
-79.235552
 21
-79.45793
  0
LINE
  8
ボルト／ビス
  6
CONTINUOUS
 62
    64
 10
-79.524227
 20
-79.336272
 11
-79.524227
 21
-79.45793
  0
LINE
  8
ボルト／ビス
  6
CONTINUOUS
 62
    64
 10
-79.428003
 20
-79.336272
 11
-79.428003
 21
-79.45793
  0
LINE
  8
ボルト／ビス
  6
CONTINUOUS
 10
-79.524227
 20
-79.45793
 11
-79.139328
 21
-79.45793
  0
LINE
  8
ボルト／ビス
  6
CONTINUOUS
 10
-79.531778
 20
-79.45793
 11
-79.531778
 21
-79.524597
  0
LINE
  8
ボルト／ビス
  6
CONTINUOUS
 10
-79.531778
 20
-79.45793
 11
-79.131778
 21
-79.45793
  0
LINE
  8
ボルト／ビス
  6
CONTINUOUS
 10
-79.131778
 20
-79.45793
 11
-79.131778
 21
-79.524597
  0
ENDBLK
  0
BLOCK
  2
*GRP_0021
 70
    65
 10
0.0
 20
0.0
  0
LINE
  8
ボルト／ビス
  6
CONTINUOUS
 10
22.001557
 20
-79.624597
 11
22.001557
 21
-79.15793
  0
LINE
  8
ボルト／ビス
  6
CONTINUOUS
 10
21.63489
 20
-79.624597
 11
21.63489
 21
-79.55793
  0
LINE
  8
ボルト／ビス
  6
CONTINUOUS
 10
21.63489
 20
-79.55793
 11
22.368225
 21
-79.55793
  0
LINE
  8
ボルト／ビス
  6
CONTINUOUS
 10
22.368225
 20
-79.55793
 11
22.368225
 21
-79.624597
  0
LINE
  8
ボルト／ビス
  6
CONTINUOUS
 10
21.63489
 20
-79.624597
 11
22.368225
 21
-79.624597
  0
LINE
  8
ボルト／ビス
  6
CONTINUOUS
 10
21.701557
 20
-79.524597
 11
21.701557
 21
-79.55793
  0
LINE
  8
ボルト／ビス
  6
CONTINUOUS
 10
21.701557
 20
-79.524597
 11
22.301557
 21
-79.524597
  0
LINE
  8
ボルト／ビス
  6
CONTINUOUS
 10
22.301557
 20
-79.524597
 11
22.301557
 21
-79.55793
  0
LINE
  8
ボルト／ビス
  6
CONTINUOUS
 62
    64
 10
21.841182
 20
-79.324597
 11
21.809108
 21
-79.336272
  0
ARC
  8
ボルト／ビス
  6
CONTINUOUS
 62
    64
 10
21.857222
 20
-79.429575
 40
0.104978
 50
62.721967
 51
90.0
  0
ARC
  8
ボルト／ビス
  6
CONTINUOUS
 62
    64
 10
22.00156
 20
-79.726999
 40
0.402402
 50
76.165002
 51
103.834985
  0
LINE
  8
ボルト／ビス
  6
CONTINUOUS
 62
    64
 10
22.161932
 20
-79.324597
 11
22.194008
 21
-79.336272
  0
ARC
  8
ボルト／ビス
  6
CONTINUOUS
 62
    64
 10
22.145897
 20
-79.429575
 40
0.104978
 50
90.0
 51
117.278033
  0
LINE
  8
ボルト／ビス
  6
CONTINUOUS
 62
    64
 10
21.841182
 20
-79.324597
 11
22.161932
 21
-79.324597
  0
LINE
  8
ボルト／ビス
  6
CONTINUOUS
 62
    64
 10
22.194008
 20
-79.336272
 11
22.194008
 21
-79.45793
  0
LINE
  8
ボルト／ビス
  6
CONTINUOUS
 62
    64
 10
22.097782
 20
-79.336272
 11
22.097782
 21
-79.45793
  0
LINE
  8
ボルト／ビス
  6
CONTINUOUS
 62
    64
 10
21.809108
 20
-79.336272
 11
21.809108
 21
-79.45793
  0
LINE
  8
ボルト／ビス
  6
CONTINUOUS
 62
    64
 10
21.905333
 20
-79.336272
 11
21.905333
 21
-79.45793
  0
LINE
  8
ボルト／ビス
  6
CONTINUOUS
 10
21.809108
 20
-79.45793
 11
22.194008
 21
-79.45793
  0
LINE
  8
ボルト／ビス
  6
CONTINUOUS
 10
21.801557
 20
-79.45793
 11
21.801557
 21
-79.524597
  0
LINE
  8
ボルト／ビス
  6
CONTINUOUS
 10
21.801557
 20
-79.45793
 11
22.201557
 21
-79.45793
  0
LINE
  8
ボルト／ビス
  6
CONTINUOUS
 10
22.201557
 20
-79.45793
 11
22.201557
 21
-79.524597
  0
ENDBLK
  0
BLOCK
  2
*GRP_0022
 70
    65
 10
0.0
 20
0.0
  0
LINE
  8
ボルト／ビス
  6
CONTINUOUS
 10
110.868155
 20
12.73238
 11
110.401488
 21
12.73238
  0
LINE
  8
ボルト／ビス
  6
CONTINUOUS
 10
110.868155
 20
12.365712
 11
110.801488
 21
12.365712
  0
LINE
  8
ボルト／ビス
  6
CONTINUOUS
 10
110.801488
 20
12.365712
 11
110.801488
 21
13.099048
  0
LINE
  8
ボルト／ビス
  6
CONTINUOUS
 10
110.801488
 20
13.099048
 11
110.868155
 21
13.099048
  0
LINE
  8
ボルト／ビス
  6
CONTINUOUS
 10
110.868155
 20
12.365712
 11
110.868155
 21
13.099048
  0
LINE
  8
ボルト／ビス
  6
CONTINUOUS
 10
110.768155
 20
12.43238
 11
110.801488
 21
12.43238
  0
LINE
  8
ボルト／ビス
  6
CONTINUOUS
 10
110.768155
 20
12.43238
 11
110.768155
 21
13.03238
  0
LINE
  8
ボルト／ビス
  6
CONTINUOUS
 10
110.768155
 20
13.03238
 11
110.801488
 21
13.03238
  0
LINE
  8
ボルト／ビス
  6
CONTINUOUS
 62
    64
 10
110.568155
 20
12.572005
 11
110.57983
 21
12.53993
  0
ARC
  8
ボルト／ビス
  6
CONTINUOUS
 62
    64
 10
110.673133
 20
12.588046
 40
0.104978
 50
152.721967
 51
180.0
  0
ARC
  8
ボルト／ビス
  6
CONTINUOUS
 62
    64
 10
110.970556
 20
12.732384
 40
0.402402
 50
166.165002
 51
193.834985
  0
LINE
  8
ボルト／ビス
  6
CONTINUOUS
 62
    64
 10
110.568155
 20
12.892755
 11
110.57983
 21
12.92483
  0
ARC
  8
ボルト／ビス
  6
CONTINUOUS
 62
    64
 10
110.673133
 20
12.876721
 40
0.104978
 50
180.0
 51
207.278033
  0
LINE
  8
ボルト／ビス
  6
CONTINUOUS
 62
    64
 10
110.568155
 20
12.572005
 11
110.568155
 21
12.892755
  0
LINE
  8
ボルト／ビス
  6
CONTINUOUS
 62
    64
 10
110.57983
 20
12.92483
 11
110.701488
 21
12.92483
  0
LINE
  8
ボルト／ビス
  6
CONTINUOUS
 62
    64
 10
110.57983
 20
12.828605
 11
110.701488
 21
12.828605
  0
LINE
  8
ボルト／ビス
  6
CONTINUOUS
 62
    64
 10
110.57983
 20
12.53993
 11
110.701488
 21
12.53993
  0
LINE
  8
ボルト／ビス
  6
CONTINUOUS
 62
    64
 10
110.57983
 20
12.636155
 11
110.701488
 21
12.636155
  0
LINE
  8
ボルト／ビス
  6
CONTINUOUS
 10
110.701488
 20
12.53993
 11
110.701488
 21
12.92483
  0
LINE
  8
ボルト／ビス
  6
CONTINUOUS
 10
110.701488
 20
12.53238
 11
110.768155
 21
12.53238
  0
LINE
  8
ボルト／ビス
  6
CONTINUOUS
 10
110.701488
 20
12.53238
 11
110.701488
 21
12.93238
  0
LINE
  8
ボルト／ビス
  6
CONTINUOUS
 10
110.701488
 20
12.93238
 11
110.768155
 21
12.93238
  0
ENDBLK
  0
BLOCK
  2
*GRP_0023
 70
    65
 10
0.0
 20
0.0
  0
LINE
  8
ボルト／ビス
  6
CONTINUOUS
 10
110.868155
 20
57.39905
 11
110.401488
 21
57.39905
  0
LINE
  8
ボルト／ビス
  6
CONTINUOUS
 10
110.868155
 20
57.032382
 11
110.801488
 21
57.032382
  0
LINE
  8
ボルト／ビス
  6
CONTINUOUS
 10
110.801488
 20
57.032382
 11
110.801488
 21
57.765718
  0
LINE
  8
ボルト／ビス
  6
CONTINUOUS
 10
110.801488
 20
57.765718
 11
110.868155
 21
57.765718
  0
LINE
  8
ボルト／ビス
  6
CONTINUOUS
 10
110.868155
 20
57.032382
 11
110.868155
 21
57.765718
  0
LINE
  8
ボルト／ビス
  6
CONTINUOUS
 10
110.768155
 20
57.09905
 11
110.801488
 21
57.09905
  0
LINE
  8
ボルト／ビス
  6
CONTINUOUS
 10
110.768155
 20
57.09905
 11
110.768155
 21
57.69905
  0
LINE
  8
ボルト／ビス
  6
CONTINUOUS
 10
110.768155
 20
57.69905
 11
110.801488
 21
57.69905
  0
LINE
  8
ボルト／ビス
  6
CONTINUOUS
 62
    64
 10
110.568155
 20
57.238675
 11
110.57983
 21
57.2066
  0
ARC
  8
ボルト／ビス
  6
CONTINUOUS
 62
    64
 10
110.673132
 20
57.254715
 40
0.104978
 50
152.721967
 51
180.0
  0
ARC
  8
ボルト／ビス
  6
CONTINUOUS
 62
    64
 10
110.970555
 20
57.399052
 40
0.402402
 50
166.165002
 51
193.834985
  0
LINE
  8
ボルト／ビス
  6
CONTINUOUS
 62
    64
 10
110.568155
 20
57.559425
 11
110.57983
 21
57.5915
  0
ARC
  8
ボルト／ビス
  6
CONTINUOUS
 62
    64
 10
110.673132
 20
57.54339
 40
0.104978
 50
180.0
 51
207.278033
  0
LINE
  8
ボルト／ビス
  6
CONTINUOUS
 62
    64
 10
110.568155
 20
57.238675
 11
110.568155
 21
57.559425
  0
LINE
  8
ボルト／ビス
  6
CONTINUOUS
 62
    64
 10
110.57983
 20
57.5915
 11
110.701488
 21
57.5915
  0
LINE
  8
ボルト／ビス
  6
CONTINUOUS
 62
    64
 10
110.57983
 20
57.495275
 11
110.701488
 21
57.495275
  0
LINE
  8
ボルト／ビス
  6
CONTINUOUS
 62
    64
 10
110.57983
 20
57.2066
 11
110.701488
 21
57.2066
  0
LINE
  8
ボルト／ビス
  6
CONTINUOUS
 62
    64
 10
110.57983
 20
57.302825
 11
110.701488
 21
57.302825
  0
LINE
  8
ボルト／ビス
  6
CONTINUOUS
 10
110.701488
 20
57.2066
 11
110.701488
 21
57.5915
  0
LINE
  8
ボルト／ビス
  6
CONTINUOUS
 10
110.701488
 20
57.19905
 11
110.768155
 21
57.19905
  0
LINE
  8
ボルト／ビス
  6
CONTINUOUS
 10
110.701488
 20
57.19905
 11
110.701488
 21
57.59905
  0
LINE
  8
ボルト／ビス
  6
CONTINUOUS
 10
110.701488
 20
57.59905
 11
110.768155
 21
57.59905
  0
ENDBLK
  0
ENDSEC
  0
SECTION
  2
ENTITIES
  0
POLYLINE
  8
通り芯
  6
CONTINUOUS
 66
     1
 70
     1
  0
VERTEX
  8
通り芯
 10
-210.0
 20
-148.5
  0
VERTEX
  8
通り芯
 10
210.0
 20
-148.5
  0
VERTEX
  8
通り芯
 10
210.0
 20
148.5
  0
VERTEX
  8
通り芯
 10
-210.0
 20
148.5
  0
SEQEND
  0
INSERT
  2
*GRP_0001
  8
型材断面
  6
CONTINUOUS
 10
0.0
 20
0.0
  0
LINE
  8
型材断面
  6
DASHDOT
 10
21.33489
 20
-87.251428
 11
21.33489
 21
56.73238
  0
LINE
  8
型材断面
  6
DASHDOT
 10
-28.66511
 20
-87.251428
 11
-28.66511
 21
56.73238
  0
LINE
  8
型材断面
  6
DASHDOT
 10
-78.66511
 20
-87.251428
 11
-78.66511
 21
56.73238
  0
LINE
  8
型材断面
  6
DASHDOT
 10
119.011652
 20
13.399048
 11
-78.66511
 21
13.399048
  0
LINE
  8
型材断面
  6
DASHDOT
 10
119.011652
 20
35.065715
 11
-78.66511
 21
35.065715
  0
LINE
  8
型材断面
  6
DASHDOT
 10
119.011652
 20
56.73238
 11
-78.66511
 21
56.73238
  0
LINE
  8
型材断面
  6
CONTINUOUS
 10
-81.29524
 20
35.065715
 11
-83.885747
 21
36.561345
  0
LINE
  8
型材断面
  6
CONTINUOUS
 10
-81.29524
 20
35.065715
 11
-83.885747
 21
33.570085
  0
LINE
  8
型材断面
  6
CONTINUOUS
 10
-83.885747
 20
33.570085
 11
-83.885747
 21
36.561345
  0
LINE
  8
型材断面
  6
CONTINUOUS
 10
-61.998442
 20
59.36251
 11
-63.494073
 21
61.953017
  0
LINE
  8
型材断面
  6
CONTINUOUS
 10
-61.998442
 20
59.36251
 11
-60.502812
 21
61.953017
  0
LINE
  8
型材断面
  6
CONTINUOUS
 10
-60.502812
 20
61.953017
 11
-63.494073
 21
61.953017
  0
LINE
  8
型材断面
  6
CONTINUOUS
 10
-119.517317
 20
101.239727
 11
-121.012947
 21
98.64922
  0
LINE
  8
型材断面
  6
CONTINUOUS
 10
-119.517317
 20
101.239727
 11
-118.021688
 21
98.64922
  0
LINE
  8
型材断面
  6
CONTINUOUS
 10
-118.021688
 20
98.64922
 11
-121.012947
 21
98.64922
  0
LINE
  8
型材断面
  6
CONTINUOUS
 10
-125.539905
 20
97.710625
 11
-79.298128
 21
97.710625
  0
LINE
  8
型材断面
  6
CONTINUOUS
 10
-61.998442
 20
10.76892
 11
-63.494073
 21
8.178413
  0
LINE
  8
型材断面
  6
CONTINUOUS
 10
-61.998442
 20
10.76892
 11
-60.502812
 21
8.178413
  0
LINE
  8
型材断面
  6
CONTINUOUS
 10
-60.502812
 20
8.178413
 11
-63.494073
 21
8.178413
  0
LINE
  8
型材断面
  6
CONTINUOUS
 10
23.96502
 20
35.065715
 11
26.555528
 21
36.561345
  0
LINE
  8
型材断面
  6
CONTINUOUS
 10
23.96502
 20
35.065715
 11
26.555528
 21
33.570085
  0
LINE
  8
型材断面
  6
CONTINUOUS
 10
26.555528
 20
33.570085
 11
26.555528
 21
36.561345
  0
LINE
  8
型材断面
  6
CONTINUOUS
 10
4.668223
 20
59.36251
 11
6.163853
 21
61.953017
  0
LINE
  8
型材断面
  6
CONTINUOUS
 10
4.668223
 20
59.36251
 11
3.172593
 21
61.953017
  0
LINE
  8
型材断面
  6
CONTINUOUS
 10
3.172593
 20
61.953017
 11
6.163853
 21
61.953017
  0
LINE
  8
型材断面
  6
CONTINUOUS
 10
4.668223
 20
10.76892
 11
6.163853
 21
8.178413
  0
LINE
  8
型材断面
  6
CONTINUOUS
 10
4.668223
 20
10.76892
 11
3.172593
 21
8.178413
  0
LINE
  8
型材断面
  6
CONTINUOUS
 10
3.172593
 20
8.178413
 11
6.163853
 21
8.178413
  0
LINE
  8
型材断面
  6
CONTINUOUS
 10
-125.539905
 20
91.744952
 11
-79.298128
 21
91.744952
  0
LINE
  8
型材断面
  6
CONTINUOUS
 10
113.40144
 20
58.889195
 11
112.95144
 21
58.889195
  0
LINE
  8
型材断面
  6
CONTINUOUS
 62
    47
 10
112.95144
 20
59.339195
 11
112.45144
 21
59.339195
  0
LINE
  8
型材断面
  6
CONTINUOUS
 62
    47
 10
112.45144
 20
59.339195
 11
111.868155
 21
57.464738
  0
LINE
  8
型材断面
  6
CONTINUOUS
 10
112.45144
 20
59.339195
 11
112.45144
 21
35.065715
  0
LINE
  8
型材断面
  6
CONTINUOUS
 10
113.40144
 20
58.889195
 11
113.40144
 21
35.065715
  0
LINE
  8
型材断面
  6
CONTINUOUS
 10
113.40144
 20
11.242235
 11
112.95144
 21
11.242235
  0
LINE
  8
型材断面
  6
CONTINUOUS
 62
    47
 10
112.95144
 20
10.792235
 11
112.45144
 21
10.792235
  0
LINE
  8
型材断面
  6
CONTINUOUS
 62
    47
 10
112.45144
 20
10.792235
 11
111.868155
 21
12.666692
  0
LINE
  8
型材断面
  6
CONTINUOUS
 10
112.45144
 20
10.792235
 11
112.45144
 21
35.065715
  0
LINE
  8
型材断面
  6
CONTINUOUS
 10
113.40144
 20
11.242235
 11
113.40144
 21
35.065715
  0
LINE
  8
型材断面
  6
CONTINUOUS
 10
23.491703
 20
-82.157882
 11
23.491703
 21
-81.707882
  0
LINE
  8
型材断面
  6
CONTINUOUS
 62
    47
 10
23.941703
 20
-81.707882
 11
23.941703
 21
-81.207882
  0
LINE
  8
型材断面
  6
CONTINUOUS
 62
    47
 10
23.941703
 20
-81.207882
 11
22.067245
 21
-80.624597
  0
LINE
  8
型材断面
  6
CONTINUOUS
 10
23.401557
 20
11.33238
 11
23.941703
 21
10.792235
  0
LINE
  8
型材断面
  6
CONTINUOUS
 10
23.941703
 20
10.792235
 11
23.941703
 21
35.065715
  0
LINE
  8
型材断面
  6
CONTINUOUS
 10
23.941703
 20
10.792235
 11
-28.66511
 21
10.79225
  0
LINE
  8
型材断面
  6
CONTINUOUS
 10
23.401557
 20
58.79905
 11
23.941703
 21
59.339195
  0
LINE
  8
型材断面
  6
CONTINUOUS
 10
23.941703
 20
59.339195
 11
23.941703
 21
35.065715
  0
LINE
  8
型材断面
  6
CONTINUOUS
 10
23.941703
 20
59.339195
 11
-28.66511
 21
59.33918
  0
LINE
  8
型材断面
  6
CONTINUOUS
 10
-80.731778
 20
58.79905
 11
-81.271922
 21
59.339195
  0
LINE
  8
型材断面
  6
CONTINUOUS
 10
-81.271922
 20
59.339195
 11
-81.271922
 21
35.065715
  0
LINE
  8
型材断面
  6
CONTINUOUS
 10
-81.271922
 20
59.339195
 11
-28.66511
 21
59.33918
  0
LINE
  8
型材断面
  6
CONTINUOUS
 10
-80.731778
 20
11.33238
 11
-81.271922
 21
10.792235
  0
LINE
  8
型材断面
  6
CONTINUOUS
 10
-81.271922
 20
10.792235
 11
-81.271922
 21
35.065715
  0
LINE
  8
型材断面
  6
CONTINUOUS
 10
-81.271922
 20
10.792235
 11
-28.66511
 21
10.79225
  0
LINE
  8
型材断面
  6
CONTINUOUS
 10
23.941703
 20
-81.207882
 11
-28.66511
 21
-81.207882
  0
LINE
  8
型材断面
  6
CONTINUOUS
 10
23.491703
 20
-82.157882
 11
-28.66511
 21
-82.157882
  0
LINE
  8
型材断面
  6
CONTINUOUS
 10
-80.821922
 20
-82.157882
 11
-80.821922
 21
-81.707882
  0
LINE
  8
型材断面
  6
CONTINUOUS
 62
    47
 10
-81.271922
 20
-81.707882
 11
-81.271922
 21
-81.207882
  0
LINE
  8
型材断面
  6
CONTINUOUS
 62
    47
 10
-81.271922
 20
-81.207882
 11
-79.397465
 21
-80.624597
  0
LINE
  8
型材断面
  6
CONTINUOUS
 10
-81.271922
 20
-81.207882
 11
-28.66511
 21
-81.207882
  0
LINE
  8
型材断面
  6
CONTINUOUS
 10
-80.821922
 20
-82.157882
 11
-28.66511
 21
-82.157882
  0
LINE
  8
型材断面
  6
DASHDOT
 10
-45.404
 20
13.399048
 11
-45.404
 21
56.73238
  0
LINE
  8
型材断面
  6
DOT
 10
-44.154
 20
13.399048
 11
-44.154
 21
56.73238
  0
LINE
  8
型材断面
  6
DOT
 10
-46.654
 20
13.399048
 11
-46.654
 21
56.73238
  0
LINE
  8
型材断面
  6
DASHDOT
 10
-11.92622
 20
13.399048
 11
-11.92622
 21
56.73238
  0
LINE
  8
型材断面
  6
DOT
 10
-13.17622
 20
13.399048
 11
-13.17622
 21
56.73238
  0
LINE
  8
型材断面
  6
DOT
 10
-10.67622
 20
13.399048
 11
-10.67622
 21
56.73238
  0
LINE
  8
ガラス
  6
CONTINUOUS
 10
142.773207
 20
-45.156955
 11
142.773207
 21
-87.823622
  0
LINE
  8
ガラス
  6
CONTINUOUS
 10
142.773207
 20
-45.156955
 11
110.39654
 21
-45.156955
  0
LINE
  8
ガラス
  6
CONTINUOUS
 10
142.773207
 20
-87.823622
 11
110.39654
 21
-87.823622
  0
LINE
  8
ガラス
  6
CONTINUOUS
 10
110.39654
 20
-45.156955
 11
110.39654
 21
-87.823622
  0
TEXT
  7
TextStyle03
  8
文字
  6
CONTINUOUS
 10
-116.75
 20
98.85
  1
は排水穴位置を示す
 40
3.0
 72
     5
 11
-86.75
 21
98.85
  0
TEXT
  7
TextStyle03
  8
文字
  6
CONTINUOUS
 10
-120.475
 20
92.65
  1
アンカー数量　１２ヶ所
 40
3.0
 72
     5
 11
-83.725
 21
92.65
  0
TEXT
  7
TextStyle03
  8
文字
  6
CONTINUOUS
 10
124.05
 20
-81.275
  1
網入り6.8t
 40
3.0
 72
     5
 11
140.7375
 21
-81.275
  0
TEXT
  7
TextStyle03
  8
文字
  6
CONTINUOUS
 10
130.725
 20
-85.95
  1
×３枚
 40
3.0
 72
     5
 11
140.475
 21
-85.95
  0
TEXT
  7
TextStyle03
  8
文字
  6
CONTINUOUS
 10
-116.25
 20
23.975
  1
アンカーピッチ
 40
3.0
 50
90.0
 72
     5
 11
-116.25
 21
47.225
  0
TEXT
  7
TextStyle03
  8
文字
  6
CONTINUOUS
 10
-68.7
 20
94.125
  1
アンカーピッチ
 40
3.0
 72
     5
 11
-45.45
 21
94.125
  0
TEXT
  7
TextStyle03
  8
文字
  6
CONTINUOUS
 10
78.1
 20
125.25
  1
シリーズ：ＳＴＤＫＬ
 40
5.0
 72
     5
 11
133.725
 21
125.25
  0
TEXT
  7
TextStyle03
  8
文字
  6
CONTINUOUS
 10
78.1
 20
119.625
  1
　　　　　（固定）1300×3000タイプ
 40
5.0
 72
     5
 11
173.1
 21
119.625
  0
TEXT
  7
TextStyle03
  8
文字
  6
CONTINUOUS
 10
78.1
 20
114.0
  1
図面名　：外観姿図
 40
5.0
 72
     5
 11
128.1
 21
114.0
  0
TEXT
  7
TextStyle03
  8
文字
  6
CONTINUOUS
 10
78.1
 20
108.375
  1
　　　　　　
 40
5.0
 72
     5
 11
111.225
 21
108.375
  0
TEXT
  7
TextStyle03
  8
文字
  6
CONTINUOUS
 10
77.7
 20
104.525
  1
ＮＳコード：ＮＳＫＳＬ
 40
5.0
 72
     5
 11
138.95
 21
104.525
  0
INSERT
  2
*DIM_0002
  8
寸法
  6
CONTINUOUS
 10
0.0
 20
0.0
  0
INSERT
  2
*DIM_0003
  8
寸法
  6
CONTINUOUS
 10
0.0
 20
0.0
  0
INSERT
  2
*DIM_0004
  8
寸法
  6
CONTINUOUS
 10
0.0
 20
0.0
  0
INSERT
  2
*DIM_0005
  8
寸法
  6
CONTINUOUS
 10
0.0
 20
0.0
  0
INSERT
  2
*DIM_0006
  8
寸法
  6
CONTINUOUS
 10
0.0
 20
0.0
  0
INSERT
  2
*DIM_0007
  8
寸法
  6
CONTINUOUS
 10
0.0
 20
0.0
  0
INSERT
  2
*DIM_0008
  8
寸法
  6
CONTINUOUS
 10
0.0
 20
0.0
  0
INSERT
  2
*DIM_0009
  8
寸法
  6
CONTINUOUS
 10
0.0
 20
0.0
  0
INSERT
  2
*DIM_0010
  8
寸法
  6
CONTINUOUS
 10
0.0
 20
0.0
  0
INSERT
  2
*DIM_0011
  8
寸法
  6
CONTINUOUS
 10
0.0
 20
0.0
  0
INSERT
  2
*DIM_0012
  8
寸法
  6
CONTINUOUS
 10
0.0
 20
0.0
  0
INSERT
  2
*DIM_0014
  8
寸法
  6
CONTINUOUS
 10
0.0
 20
0.0
  0
INSERT
  2
*DIM_0015
  8
寸法
  6
CONTINUOUS
 10
0.0
 20
0.0
  0
INSERT
  2
*DIM_0016
  8
寸法
  6
CONTINUOUS
 10
0.0
 20
0.0
  0
INSERT
  2
*DIM_0017
  8
寸法
  6
CONTINUOUS
 10
0.0
 20
0.0
  0
INSERT
  2
*DIM_0018
  8
寸法
  6
CONTINUOUS
 10
0.0
 20
0.0
  0
INSERT
  2
*DIM_0019
  8
寸法
  6
CONTINUOUS
 10
0.0
 20
0.0
  0
LINE
  8
別途部材
  6
CONTINUOUS
 10
23.401557
 20
11.33238
 11
23.001557
 21
11.73238
  0
LINE
  8
別途部材
  6
CONTINUOUS
 10
21.33489
 20
13.399048
 11
13.275635
 21
21.458305
  0
LINE
  8
別途部材
  6
CONTINUOUS
 10
23.001557
 20
11.73238
 11
23.001557
 21
35.065715
  0
LINE
  8
別途部材
  6
CONTINUOUS
 10
23.401557
 20
11.33238
 11
23.401557
 21
35.065715
  0
LINE
  8
別途部材
  6
CONTINUOUS
 10
23.401557
 20
58.79905
 11
23.001557
 21
58.39905
  0
LINE
  8
別途部材
  6
CONTINUOUS
 10
21.33489
 20
56.732382
 11
13.275635
 21
48.673125
  0
LINE
  8
別途部材
  6
CONTINUOUS
 10
23.001557
 20
58.39905
 11
23.001557
 21
35.065715
  0
LINE
  8
別途部材
  6
CONTINUOUS
 10
23.401557
 20
58.79905
 11
23.401557
 21
35.065715
  0
LINE
  8
別途部材
  6
CONTINUOUS
 10
23.401557
 20
58.79905
 11
-28.66511
 21
58.79905
  0
LINE
  8
別途部材
  6
CONTINUOUS
 10
23.001557
 20
58.39905
 11
-28.66511
 21
58.39905
  0
LINE
  8
別途部材
  6
CONTINUOUS
 10
23.001557
 20
11.73238
 11
-28.66511
 21
11.73238
  0
LINE
  8
別途部材
  6
CONTINUOUS
 10
23.401557
 20
11.33238
 11
-28.66511
 21
11.33238
  0
LINE
  8
別途部材
  6
CONTINUOUS
 10
-80.731778
 20
11.33238
 11
-80.331778
 21
11.73238
  0
LINE
  8
別途部材
  6
CONTINUOUS
 10
-78.66511
 20
13.399048
 11
-70.605855
 21
21.458305
  0
LINE
  8
別途部材
  6
CONTINUOUS
 10
-80.331778
 20
11.73238
 11
-80.331778
 21
35.065715
  0
LINE
  8
別途部材
  6
CONTINUOUS
 10
-80.731778
 20
11.33238
 11
-80.731778
 21
35.065715
  0
LINE
  8
別途部材
  6
CONTINUOUS
 10
-80.731778
 20
58.79905
 11
-80.331778
 21
58.39905
  0
LINE
  8
別途部材
  6
CONTINUOUS
 10
-78.66511
 20
56.732382
 11
-70.605855
 21
48.673125
  0
LINE
  8
別途部材
  6
CONTINUOUS
 10
-80.331778
 20
58.39905
 11
-80.331778
 21
35.065715
  0
LINE
  8
別途部材
  6
CONTINUOUS
 10
-80.731778
 20
58.79905
 11
-80.731778
 21
35.065715
  0
LINE
  8
別途部材
  6
CONTINUOUS
 10
-80.731778
 20
58.79905
 11
-28.66511
 21
58.79905
  0
LINE
  8
別途部材
  6
CONTINUOUS
 10
-80.331778
 20
58.39905
 11
-28.66511
 21
58.39905
  0
LINE
  8
別途部材
  6
CONTINUOUS
 10
-80.331778
 20
11.73238
 11
-28.66511
 21
11.73238
  0
LINE
  8
別途部材
  6
CONTINUOUS
 10
-80.731778
 20
11.33238
 11
-28.66511
 21
11.33238
  0
LINE
  8
別途部材
  6
CONTINUOUS
 62
    96
 10
110.868155
 20
11.73238
 11
111.868155
 21
11.33238
  0
LINE
  8
別途部材
  6
CONTINUOUS
 10
111.868155
 20
11.33238
 11
111.868155
 21
35.065715
  0
LINE
  8
別途部材
  6
CONTINUOUS
 62
    96
 10
110.868155
 20
11.73238
 11
110.868155
 21
35.065715
  0
LINE
  8
別途部材
  6
CONTINUOUS
 62
    96
 10
110.868155
 20
58.39905
 11
111.868155
 21
58.79905
  0
LINE
  8
別途部材
  6
CONTINUOUS
 10
111.868155
 20
58.79905
 11
111.868155
 21
35.065715
  0
LINE
  8
別途部材
  6
CONTINUOUS
 62
    96
 10
110.868155
 20
58.39905
 11
110.868155
 21
35.065715
  0
ARC
  8
別途部材
  6
CONTINUOUS
 10
125.153867
 20
35.065713
 40
25.95238
 50
123.398485
 51
236.601515
  0
INSERT
  2
*GRP_0013
  8
別途部材
  6
CONTINUOUS
 10
0.0
 20
0.0
  0
INSERT
  2
*GRP_0020
  8
別途部材
  6
DOT
 10
0.0
 20
0.0
  0
INSERT
  2
*GRP_0021
  8
別途部材
  6
DOT
 10
0.0
 20
0.0
  0
INSERT
  2
*GRP_0022
  8
別途部材
  6
DOT
 10
0.0
 20
0.0
  0
INSERT
  2
*GRP_0023
  8
別途部材
  6
DOT
 10
0.0
 20
0.0
  0
LINE
  8
St
  6
CONTINUOUS
 62
    47
 10
112.95144
 20
59.339195
 11
112.95144
 21
35.065715
  0
LINE
  8
St
  6
CONTINUOUS
 62
    47
 10
112.95144
 20
10.792235
 11
112.95144
 21
35.065715
  0
LINE
  8
St
  6
CONTINUOUS
 62
    47
 10
23.941703
 20
-81.707882
 11
-28.66511
 21
-81.707882
  0
LINE
  8
St
  6
CONTINUOUS
 62
    47
 10
-81.271922
 20
-81.707882
 11
-28.66511
 21
-81.707882
  0
ENDSEC
  0
EOF
