  0
SECTION
  2
HEADER
  9
$EXTMIN
 10
-210.0
 20
-148.5
  9
$EXTMAX
 10
210.0
 20
148.5
  9
$PDMODE
 70
    32
  9
$PDSIZE
 40
1.5
  9
$LTSCALE
 40
10.0
  0
ENDSEC
  0
SECTION
  2
TABLES
  0
TABLE
  2
LTYPE
 70
    15
  0
LTYPE
  2
CONTINUOUS
 70
    64
  3
実線
 72
    65
 73
     0
 40
0.0
  0
LTYPE
  2
DASHED
 70
    64
  3
破線A
 72
    65
 73
     2
 40
0.6
 49
0.4
 49
-0.2
  0
LTYPE
  2
DASHEDX2
 70
    64
  3
破線B
 72
    65
 73
     2
 40
1.3
 49
0.9
 49
-0.4
  0
LTYPE
  2
DASHDOT
 70
    64
  3
１点鎖線A
 72
    65
 73
     4
 40
0.5375
 49
0.375
 49
-0.05
 49
0.0625
 49
-0.05
  0
LTYPE
  2
DASHDOTX2
 70
    64
  3
１点鎖線B
 72
    65
 73
     4
 40
1.075
 49
0.75
 49
-0.1
 49
0.125
 49
-0.1
  0
LTYPE
  2
DIVIDE2
 70
    64
  3
２点鎖線A
 72
    65
 73
     6
 40
0.5125
 49
0.3
 49
-0.0375
 49
0.05
 49
-0.0375
 49
0.05
 49
-0.0375
  0
LTYPE
  2
DIVIDE
 70
    64
  3
２点鎖線B
 72
    65
 73
     6
 40
1.05
 49
0.55
 49
-0.1
 49
0.1
 49
-0.1
 49
0.1
 49
-0.1
  0
LTYPE
  2
DOT
 70
    64
  3
点線A
 72
    65
 73
     2
 40
0.1125
 49
0.0625
 49
-0.05
  0
LTYPE
  2
DOTX2
 70
    64
  3
点線B
 72
    65
 73
     2
 40
0.275
 49
0.15
 49
-0.125
  0
LTYPE
  2
CONTINUOUS
 70
    64
  3
実線
 72
    65
 73
     0
 40
0.0
  0
LTYPE
  2
CONTINUOUS
 70
    64
  3
実線
 72
    65
 73
     0
 40
0.0
  0
LTYPE
  2
CONTINUOUS
 70
    64
  3
実線
 72
    65
 73
     0
 40
0.0
  0
LTYPE
  2
CONTINUOUS
 70
    64
  3
実線
 72
    65
 73
     0
 40
0.0
  0
LTYPE
  2
CONTINUOUS
 70
    64
  3
実線
 72
    65
 73
     0
 40
0.0
  0
LTYPE
  2
CONTINUOUS
 70
    64
  3
実線
 72
    65
 73
     0
 40
0.0
  0
ENDTAB
  0
TABLE
  2
LAYER
 70
    34
  0
LAYER
  2
通り芯
 70
     0
 62
    15
  6
CONTINUOUS
  0
LAYER
  2
補助線
 70
     0
 62
    16
  6
DOT
  0
LAYER
  2
躯体
 70
     0
 62
    31
  6
CONTINUOUS
  0
LAYER
  2
型材
 70
     0
 62
    32
  6
CONTINUOUS
  0
LAYER
  2
型材断面
 70
     0
 62
    47
  6
CONTINUOUS
  0
LAYER
  2
ガラス
 70
     0
 62
    48
  6
CONTINUOUS
  0
LAYER
  2
ゴム等
 70
     0
 62
    63
  6
CONTINUOUS
  0
LAYER
  2
ボルト／ビス
 70
     0
 62
    64
  6
CONTINUOUS
  0
LAYER
  2
文字
 70
     0
 62
    79
  6
CONTINUOUS
  0
LAYER
  2
寸法
 70
     0
 62
    80
  6
CONTINUOUS
  0
LAYER
  2
ﾊｯﾁﾝｸﾞ
 70
     0
 62
    95
  6
CONTINUOUS
  0
LAYER
  2
別途部材
 70
     0
 62
    96
  6
CONTINUOUS
  0
LAYER
  2
曲げ物
 70
     0
 62
   111
  6
CONTINUOUS
  0
LAYER
  2
鉄骨等
 70
     0
 62
   112
  6
CONTINUOUS
  0
LAYER
  2
St
 70
     0
 62
   127
  6
CONTINUOUS
  0
LAYER
  2
その他部品等
 70
     0
 62
   128
  6
CONTINUOUS
  0
LAYER
  2
ｶﾞｽｹｯﾄ
 70
     0
 62
   143
  6
CONTINUOUS
  0
LAYER
  2
ｽｹｯﾁ
 70
     0
 62
    14
  6
CONTINUOUS
  0
LAYER
  2
0
 70
     0
 62
    17
  6
CONTINUOUS
  0
LAYER
  2
1
 70
     0
 62
    30
  6
CONTINUOUS
  0
LAYER
  2
4
 70
     0
 62
    33
  6
CONTINUOUS
  0
LAYER
  2
ﾚｲﾔ3
 70
     0
 62
    46
  6
CONTINUOUS
  0
LAYER
  2
外形線
 70
     0
 62
    49
  6
CONTINUOUS
  0
LAYER
  2
部品
 70
     0
 62
    14
  6
CONTINUOUS
  0
LAYER
  2
サッシ芯
 70
     0
 62
    17
  6
DASHDOTX2
  0
LAYER
  2
寸法線
 70
     0
 62
    62
  6
CONTINUOUS
  0
LAYER
  2
姿図外形線
 70
     0
 62
    65
  6
CONTINUOUS
  0
LAYER
  2
姿補助線
 70
     0
 62
    30
  6
CONTINUOUS
  0
LAYER
  2
透視線
 70
     0
 62
    78
  6
DOT
  0
LAYER
  2
用紙
 70
     0
 62
    81
  6
CONTINUOUS
  0
LAYER
  2
実線図枠
 70
     0
 62
    94
  6
CONTINUOUS
  0
LAYER
  2
補助図枠
 70
     0
 62
    97
  6
CONTINUOUS
  0
LAYER
  2
建具記号
 70
     0
 62
   110
  6
CONTINUOUS
  0
LAYER
  2
補助文字
 70
     0
 62
   113
  6
CONTINUOUS
  0
ENDTAB
  0
TABLE
  2
STYLE
 70
    10
  0
STYLE
  2
STANDARD
 70
     0
 40
1.0
 41
1.0
 42
1.0
 50
0.0
 71
     0
  3
TXT
  4
BIGFONT
  0
STYLE
  2
TATE
 70
     4
 40
1.0
 41
1.0
 42
1.0
 50
0.0
 71
     0
  3
TXT
  4
BIGFONT
  0
STYLE
  2
TextStyle03
 70
     0
 40
1.0
 41
1.0
 42
1.0
 50
0.0
 71
     0
  3
MONOTXT
  4
BIGFONT
  0
STYLE
  2
TextStyle04
 70
     0
 40
1.0
 41
1.0
 42
1.0
 50
0.0
 71
     0
  3
MONOTXT
  4
BIGFONT
  0
STYLE
  2
TextStyle05
 70
     0
 40
1.0
 41
1.0
 42
1.0
 50
0.0
 71
     0
  3
MONOTXT
  4
BIGFONT
  0
STYLE
  2
TextStyle06
 70
     0
 40
1.0
 41
1.0
 42
1.0
 50
0.0
 71
     0
  3
MONOTXT
  4
BIGFONT
  0
STYLE
  2
TextStyle07
 70
     0
 40
1.0
 41
1.0
 42
1.0
 50
0.0
 71
     0
  3
MONOTXT
  4
BIGFONT
  0
STYLE
  2
TextStyle08
 70
     0
 40
1.0
 41
1.0
 42
1.0
 50
0.0
 71
     0
  3
MONOTXT
  4
BIGFONT
  0
STYLE
  2
TextStyle09
 70
     0
 40
1.0
 41
1.0
 42
1.0
 50
0.0
 71
     0
  3
MONOTXT
  4
BIGFONT
  0
STYLE
  2
TextStyle10
 70
     0
 40
1.0
 41
1.0
 42
1.0
 50
0.0
 71
     0
  3
MONOTXT
  4
BIGFONT
  0
ENDTAB
  0
ENDSEC
  0
SECTION
  2
BLOCKS
  0
BLOCK
  2
*HAT_0001
 70
    65
 10
0.0
 20
0.0
  0
LINE
  8
St
 10
6.325
 20
12.85
 11
6.35
 21
12.875
  0
LINE
  8
St
 10
4.9
 20
12.85
 11
5.925
 21
13.875
  0
LINE
  8
St
 10
3.5
 20
12.85
 11
4.975
 21
14.325
  0
LINE
  8
St
 10
2.075
 20
12.85
 11
3.575
 21
14.35
  0
LINE
  8
St
 10
0.675
 20
12.85
 11
2.175
 21
14.35
  0
LINE
  8
St
 10
-0.75
 20
12.85
 11
0.75
 21
14.35
  0
LINE
  8
St
 10
-3.65
 20
11.35
 11
-0.65
 21
14.35
  0
LINE
  8
St
 10
-5.075
 20
11.35
 11
-2.075
 21
14.35
  0
LINE
  8
St
 10
-6.475
 20
11.35
 11
-3.475
 21
14.35
  0
LINE
  8
St
 10
-7.9
 20
11.35
 11
-4.9
 21
14.35
  0
LINE
  8
St
 10
-9.3
 20
11.35
 11
-6.3
 21
14.35
  0
LINE
  8
St
 10
-10.725
 20
11.35
 11
-7.725
 21
14.35
  0
LINE
  8
St
 10
-12.125
 20
11.35
 11
-9.125
 21
14.35
  0
LINE
  8
St
 10
-13.55
 20
11.325
 11
-10.55
 21
14.35
  0
LINE
  8
St
 10
-14.95
 20
11.325
 11
-11.95
 21
14.35
  0
LINE
  8
St
 10
-16.375
 20
11.325
 11
-13.375
 21
14.35
  0
LINE
  8
St
 10
-17.775
 20
11.325
 11
-14.775
 21
14.35
  0
LINE
  8
St
 10
-19.2
 20
11.325
 11
-16.2
 21
14.35
  0
LINE
  8
St
 10
-20.6
 20
11.325
 11
-17.6
 21
14.35
  0
LINE
  8
St
 10
-22.025
 20
11.325
 11
-19.0
 21
14.35
  0
LINE
  8
St
 10
-23.1
 20
11.675
 11
-20.425
 21
14.35
  0
LINE
  8
St
 10
-23.625
 20
12.55
 11
-21.85
 21
14.35
  0
ENDBLK
  0
BLOCK
  2
*HAT_0002
 70
    65
 10
0.0
 20
0.0
  0
LINE
  8
型材断面
 10
13.425
 20
-0.7
 11
15.85
 21
1.7
  0
LINE
  8
型材断面
 10
10.6
 20
-0.7
 11
15.85
 21
4.525
  0
LINE
  8
型材断面
 10
7.85
 20
-0.625
 11
15.775
 21
7.3
  0
LINE
  8
型材断面
 10
7.85
 20
2.2
 11
12.95
 21
7.3
  0
LINE
  8
型材断面
 10
7.85
 20
5.025
 11
10.125
 21
7.3
  0
ENDBLK
  0
BLOCK
  2
*HAT_0003
 70
    65
 10
0.0
 20
0.0
  0
LINE
  8
その他部品等
 10
13.3
 20
-2.225
 11
13.325
 21
-2.2
  0
LINE
  8
その他部品等
 10
7.7
 20
-6.425
 11
11.925
 21
-2.2
  0
LINE
  8
その他部品等
 10
6.35
 20
-6.35
 11
10.5
 21
-2.2
  0
LINE
  8
その他部品等
 10
6.35
 20
-4.95
 11
9.1
 21
-2.2
  0
LINE
  8
その他部品等
 10
6.35
 20
-3.55
 11
7.25
 21
-2.625
  0
LINE
  8
その他部品等
 10
6.35
 20
-6.375
 11
6.95
 21
-6.975
  0
LINE
  8
その他部品等
 10
6.35
 20
-4.95
 11
7.75
 21
-6.375
  0
LINE
  8
その他部品等
 10
6.35
 20
-3.55
 11
8.575
 21
-5.775
  0
LINE
  8
その他部品等
 10
6.975
 20
-2.75
 11
9.375
 21
-5.175
  0
LINE
  8
その他部品等
 10
7.825
 20
-2.2
 11
10.175
 21
-4.55
  0
LINE
  8
その他部品等
 10
9.225
 20
-2.2
 11
11.0
 21
-3.95
  0
LINE
  8
その他部品等
 10
10.65
 20
-2.2
 11
11.8
 21
-3.35
  0
LINE
  8
その他部品等
 10
12.05
 20
-2.2
 11
12.6
 21
-2.75
  0
ENDBLK
  0
BLOCK
  2
*GRP_0001
 70
    65
 10
0.0
 20
0.0
  0
LINE
  8
型材断面
  6
CONTINUOUS
 10
195.0
 20
133.5
 11
195.0
 21
-133.5
  0
LINE
  8
型材断面
  6
CONTINUOUS
 10
195.0
 20
-133.5
 11
-185.0
 21
-133.5
  0
LINE
  8
型材断面
  6
CONTINUOUS
 10
-185.0
 20
-133.5
 11
-185.0
 21
133.5
  0
LINE
  8
型材断面
  6
CONTINUOUS
 10
195.0
 20
133.5
 11
-185.0
 21
133.5
  0
LINE
  8
型材断面
  6
CONTINUOUS
 10
145.0
 20
-133.5
 11
145.0
 21
-118.5
  0
LINE
  8
型材断面
  6
CONTINUOUS
 10
195.0
 20
-118.5
 11
145.0
 21
-118.5
  0
ENDBLK
  0
BLOCK
  2
*DIM_0002
 70
    65
 10
0.0
 20
0.0
  0
LINE
  8
寸法
  6
BYBLOCK
 62
     0
 10
6.358098
 20
20.107948
 11
6.358098
 21
82.413593
  0
LINE
  8
寸法
  6
BYBLOCK
 62
     0
 10
131.915187
 20
82.413593
 11
6.358098
 21
82.413593
  0
POINT
  8
寸法
 62
     0
 10
131.915187
 20
82.413593
  0
POINT
  8
寸法
 62
     0
 10
6.358098
 20
82.413593
  0
TEXT
  7
TextStyle03
  8
寸法
  6
CONTINUOUS
 62
     0
 10
85.575
 20
83.925
  1
　
 40
3.5
 72
     5
 11
89.075
 21
83.925
  0
ENDBLK
  0
BLOCK
  2
*DIM_0003
 70
    65
 10
0.0
 20
0.0
  0
LINE
  8
寸法
  6
BYBLOCK
 62
     0
 10
-71.84628
 20
-47.18265
 11
-71.84628
 21
-81.767885
  0
LINE
  8
寸法
  6
BYBLOCK
 62
     0
 10
32.1581
 20
-8.31416
 11
32.1581
 21
-81.767885
  0
LINE
  8
寸法
  6
BYBLOCK
 62
     0
 10
-71.84628
 20
-81.767885
 11
32.1581
 21
-81.767885
  0
POINT
  8
寸法
 62
     0
 10
-71.84628
 20
-81.767885
  0
POINT
  8
寸法
 62
     0
 10
32.1581
 20
-81.767885
  0
TEXT
  7
TextStyle03
  8
寸法
  6
CONTINUOUS
 62
     0
 10
-22.7
 20
-81.425
  1
104
 40
3.5
 72
     5
 11
-17.0
 21
-81.425
  0
ENDBLK
  0
BLOCK
  2
*DIM_0004
 70
    65
 10
0.0
 20
0.0
  0
LINE
  8
寸法
  6
BYBLOCK
 62
     0
 10
-71.84628
 20
-26.18265
 11
-71.84628
 21
82.413593
  0
LINE
  8
寸法
  6
BYBLOCK
 62
     0
 10
6.358098
 20
82.413593
 11
-71.84628
 21
82.413593
  0
POINT
  8
寸法
 62
     0
 10
6.358098
 20
82.413593
  0
POINT
  8
寸法
 62
     0
 10
-71.84628
 20
82.413593
  0
TEXT
  7
TextStyle03
  8
寸法
  6
CONTINUOUS
 62
     0
 10
-36.5875
 20
82.75
  1
78.2
 40
3.5
 72
     5
 11
-28.9125
 21
82.75
  0
ENDBLK
  0
BLOCK
  2
*DIM_0005
 70
    65
 10
0.0
 20
0.0
  0
LINE
  8
寸法
  6
BYBLOCK
 62
     0
 10
-43.6419
 20
19.315925
 11
-43.6419
 21
75.103917
  0
LINE
  8
寸法
  6
BYBLOCK
 62
     0
 10
-71.84628
 20
75.103917
 11
-43.6419
 21
75.103917
  0
POINT
  8
寸法
 62
     0
 10
-71.84628
 20
75.103917
  0
POINT
  8
寸法
 62
     0
 10
-43.6419
 20
75.103917
  0
TEXT
  7
TextStyle03
  8
寸法
  6
CONTINUOUS
 62
     0
 10
-61.5875
 20
75.45
  1
28.2
 40
3.5
 72
     5
 11
-53.9125
 21
75.45
  0
ENDBLK
  0
BLOCK
  2
*DIM_0006
 70
    65
 10
0.0
 20
0.0
  0
LINE
  8
寸法
  6
BYBLOCK
 62
     0
 10
-45.6419
 20
17.315925
 11
-147.375443
 21
17.315925
  0
LINE
  8
寸法
  6
BYBLOCK
 62
     0
 10
-73.84628
 20
-45.18265
 11
-147.375443
 21
-45.18265
  0
LINE
  8
寸法
  6
BYBLOCK
 62
     0
 10
-147.375443
 20
17.315925
 11
-147.375443
 21
-45.18265
  0
POINT
  8
寸法
 62
     0
 10
-147.375443
 20
17.315925
  0
POINT
  8
寸法
 62
     0
 10
-147.375443
 20
-45.18265
  0
TEXT
  7
TextStyle03
  8
寸法
  6
CONTINUOUS
 62
     0
 10
-147.75
 20
-17.7875
  1
62.5
 40
3.5
 50
90.0
 72
     5
 11
-147.75
 21
-10.1125
  0
ENDBLK
  0
BLOCK
  2
*DIM_0007
 70
    65
 10
0.0
 20
0.0
  0
LINE
  8
寸法
  6
BYBLOCK
 62
     0
 10
-137.3411
 20
17.315925
 11
-136.344082
 21
17.315925
  0
LINE
  8
寸法
  6
BYBLOCK
 62
     0
 10
-57.64188
 20
-12.684075
 11
-136.344082
 21
-12.684075
  0
LINE
  8
寸法
  6
BYBLOCK
 62
     0
 10
-136.344082
 20
17.315925
 11
-136.344082
 21
-12.684075
  0
POINT
  8
寸法
 62
     0
 10
-136.344082
 20
17.315925
  0
POINT
  8
寸法
 62
     0
 10
-136.344082
 20
-12.684075
  0
TEXT
  7
TextStyle03
  8
寸法
  6
CONTINUOUS
 62
     0
 10
-136.725
 20
0.4375
  1
30
 40
3.5
 50
90.0
 72
     5
 11
-136.725
 21
4.1625
  0
ENDBLK
  0
BLOCK
  2
*DIM_0008
 70
    65
 10
0.0
 20
0.0
  0
LINE
  8
寸法
  6
BYBLOCK
 62
     0
 10
-73.84628
 20
-30.18265
 11
-136.344082
 21
-30.18265
  0
LINE
  8
寸法
  6
BYBLOCK
 62
     0
 10
-136.344082
 20
-12.684075
 11
-136.344082
 21
-30.18265
  0
POINT
  8
寸法
 62
     0
 10
-136.344082
 20
-30.18265
  0
TEXT
  7
TextStyle03
  8
寸法
  6
CONTINUOUS
 62
     0
 10
-136.725
 20
-25.2875
  1
17.5
 40
3.5
 50
90.0
 72
     5
 11
-136.725
 21
-17.6125
  0
ENDBLK
  0
BLOCK
  2
*DIM_0009
 70
    65
 10
0.0
 20
0.0
  0
LINE
  8
寸法
  6
BYBLOCK
 62
     0
 10
-75.84628
 20
-45.18265
 11
-136.344082
 21
-45.18265
  0
LINE
  8
寸法
  6
BYBLOCK
 62
     0
 10
-136.344082
 20
-30.18265
 11
-136.344082
 21
-45.18265
  0
POINT
  8
寸法
 62
     0
 10
-136.344082
 20
-45.18265
  0
TEXT
  7
TextStyle03
  8
寸法
  6
CONTINUOUS
 62
     0
 10
-136.725
 20
-39.5625
  1
15
 40
3.5
 50
90.0
 72
     5
 11
-136.725
 21
-35.8375
  0
ENDBLK
  0
BLOCK
  2
*GRP_0010
 70
    65
 10
0.0
 20
0.0
  0
POLYLINE
  8
寸法
  6
BYBLOCK
 62
     0
 66
     1
  0
VERTEX
  8
寸法
 10
53.892965
 20
62.89975
  0
VERTEX
  8
寸法
 10
56.49104
 20
61.39975
  0
VERTEX
  8
寸法
 10
54.99104
 20
63.997827
  0
SEQEND
  0
POLYLINE
  8
寸法
  6
BYBLOCK
 62
     0
 66
     1
  0
VERTEX
  8
寸法
 10
56.49104
 20
61.39975
  0
VERTEX
  8
寸法
 10
17.757122
 20
100.133668
  0
VERTEX
  8
寸法
 10
4.365237
 20
100.133668
  0
SEQEND
  0
ENDBLK
  0
BLOCK
  2
*GRP_0011
 70
    65
 10
0.0
 20
0.0
  0
POLYLINE
  8
寸法
  6
BYBLOCK
 62
     0
 66
     1
  0
VERTEX
  8
寸法
 10
-24.3629
 20
14.5125
  0
VERTEX
  8
寸法
 10
-21.764825
 20
13.0125
  0
VERTEX
  8
寸法
 10
-23.264825
 20
15.610575
  0
SEQEND
  0
POLYLINE
  8
寸法
  6
BYBLOCK
 62
     0
 66
     1
  0
VERTEX
  8
寸法
 10
-21.764825
 20
13.0125
  0
VERTEX
  8
寸法
 10
-38.067803
 20
29.315478
  0
VERTEX
  8
寸法
 10
-79.15117
 20
29.315478
  0
SEQEND
  0
ENDBLK
  0
BLOCK
  2
*GRP_0012
 70
    65
 10
0.0
 20
0.0
  0
ARC
  8
ゴム等
  6
CONTINUOUS
 62
   127
 10
4.858098
 20
12.812342
 40
1.5
 50
0.0
 51
90.0
  0
LINE
  8
ゴム等
  6
CONTINUOUS
 62
   127
 10
6.358102
 20
12.81234
 11
6.358102
 21
12.81234
  0
LINE
  8
ゴム等
  6
CONTINUOUS
 62
   127
 10
-22.141897
 20
14.31234
 11
4.858102
 21
14.31234
  0
ARC
  8
ゴム等
  6
CONTINUOUS
 62
   127
 10
-22.141902
 20
12.812342
 40
1.5
 50
90.0
 51
180.0
  0
LINE
  8
ゴム等
  6
CONTINUOUS
 62
   127
 10
-23.641897
 20
12.81234
 11
-23.641897
 21
12.81234
  0
ARC
  8
ゴム等
  6
CONTINUOUS
 62
   127
 10
-22.141902
 20
12.812342
 40
1.5
 50
180.0
 51
270.0
  0
LINE
  8
ゴム等
  6
CONTINUOUS
 62
   127
 10
-22.141897
 20
11.31234
 11
-2.644502
 21
11.31234
  0
ARC
  8
St
  6
CONTINUOUS
 10
-8.641897
 20
9.812342
 40
1.036845
 50
90.0
 51
90.0
  0
ARC
  8
St
  6
CONTINUOUS
 10
-8.641897
 20
9.812342
 40
1.631207
 50
90.0
 51
90.0
  0
LINE
  8
St
  6
CONTINUOUS
 10
-2.141897
 20
12.81234
 11
6.358098
 21
12.81234
  0
LINE
  8
St
  6
CONTINUOUS
 10
-2.141897
 20
12.81234
 11
-2.644502
 21
11.31234
  0
INSERT
  2
*HAT_0001
  8
St
 10
0.0
 20
0.0
  0
ENDBLK
  0
BLOCK
  2
*DIM_0013
 70
    65
 10
0.0
 20
0.0
  0
LINE
  8
寸法
  6
CONTINUOUS
 62
     0
 10
-59.34628
 20
-58.68265
 11
-147.375443
 21
-58.68265
  0
LINE
  8
寸法
  6
CONTINUOUS
 62
     0
 10
-147.375443
 20
-45.18265
 11
-147.375443
 21
-58.68265
  0
POINT
  8
寸法
 62
     0
 10
-147.375443
 20
-45.18265
  0
POINT
  8
寸法
 62
     0
 10
-147.375443
 20
-58.68265
  0
TEXT
  7
TextStyle03
  8
寸法
  6
CONTINUOUS
 62
     0
 10
-147.775
 20
-55.23125
  1
13.5
 40
3.0
 50
90.0
 72
     5
 11
-147.775
 21
-48.66875
  0
ENDBLK
  0
BLOCK
  2
*DIM_0014
 70
    65
 10
0.0
 20
0.0
  0
LINE
  8
寸法
  6
BYBLOCK
 62
     0
 10
-71.84628
 20
-74.263158
 11
-71.84628
 21
-75.217105
  0
LINE
  8
寸法
  6
BYBLOCK
 62
     0
 10
-58.34628
 20
-59.68265
 11
-58.34628
 21
-75.217105
  0
LINE
  8
寸法
  6
BYBLOCK
 62
     0
 10
-71.84628
 20
-75.217105
 11
-58.34628
 21
-75.217105
  0
POINT
  8
寸法
 62
     0
 10
-71.84628
 20
-75.217105
  0
POINT
  8
寸法
 62
     0
 10
-58.34628
 20
-75.217105
  0
TEXT
  7
TextStyle03
  8
寸法
  6
CONTINUOUS
 62
     0
 10
-68.38125
 20
-74.85
  1
13.5
 40
3.0
 72
     5
 11
-61.81875
 21
-74.85
  0
ENDBLK
  0
BLOCK
  2
*DIM_0015
 70
    65
 10
0.0
 20
0.0
  0
LINE
  8
寸法
  6
BYBLOCK
 62
     0
 10
32.1581
 20
-9.31416
 11
32.1581
 21
-75.217105
  0
LINE
  8
寸法
  6
BYBLOCK
 62
     0
 10
-58.34628
 20
-75.217105
 11
32.1581
 21
-75.217105
  0
POINT
  8
寸法
 62
     0
 10
32.1581
 20
-75.217105
  0
TEXT
  7
TextStyle03
  8
寸法
  6
CONTINUOUS
 62
     0
 10
-16.38125
 20
-74.85
  1
90.5
 40
3.0
 72
     5
 11
-9.81875
 21
-74.85
  0
ENDBLK
  0
BLOCK
  2
*GRP_0016
 70
    65
 10
0.0
 20
0.0
  0
POLYLINE
  8
寸法
  6
BYBLOCK
 62
     0
 66
     1
  0
VERTEX
  8
寸法
 10
-36.725
 20
-35.682895
  0
VERTEX
  8
寸法
 10
-22.070395
 20
-50.3375
  0
VERTEX
  8
寸法
 10
-10.998027
 20
-50.3375
  0
SEQEND
  0
ENDBLK
  0
BLOCK
  2
*GRP_0017
 70
    65
 10
0.0
 20
0.0
  0
ARC
  8
ボルト／ビス
  6
CONTINUOUS
 10
-17.141905
 20
2.312339
 40
1.0
 50
180.0
 51
270.0
  0
LINE
  8
ボルト／ビス
  6
CONTINUOUS
 10
-10.141903
 20
1.31234
 11
-17.141903
 21
1.31234
  0
ARC
  8
ボルト／ビス
  6
CONTINUOUS
 10
-10.141905
 20
2.312339
 40
1.0
 50
270.0
 51
360.0
  0
LINE
  8
ボルト／ビス
  6
CONTINUOUS
 10
-8.641903
 20
11.81234
 11
-8.641903
 21
11.31234
  0
LINE
  8
ボルト／ビス
  6
CONTINUOUS
 10
-18.641903
 20
11.81234
 11
-18.641903
 21
11.31234
  0
LINE
  8
ボルト／ビス
  6
CONTINUOUS
 10
-8.641903
 20
11.81234
 11
-18.641903
 21
11.81234
  0
LINE
  8
ボルト／ビス
  6
CONTINUOUS
 10
-8.641903
 20
11.31234
 11
-18.641903
 21
11.31234
  0
LINE
  8
ボルト／ビス
  6
CONTINUOUS
 10
-9.141903
 20
2.31234
 11
-9.141903
 21
8.31234
  0
LINE
  8
ボルト／ビス
  6
CONTINUOUS
 10
-9.141903
 20
9.81234
 11
-9.141903
 21
11.31234
  0
LINE
  8
ボルト／ビス
  6
CONTINUOUS
 10
-18.141903
 20
11.31234
 11
-18.141903
 21
9.81234
  0
LINE
  8
ボルト／ビス
  6
CONTINUOUS
 10
-18.141903
 20
8.31234
 11
-18.141903
 21
2.31234
  0
LINE
  8
ボルト／ビス
  6
CONTINUOUS
 10
-7.891903
 20
9.81234
 11
-13.641903
 21
9.81234
  0
ARC
  8
ボルト／ビス
  6
CONTINUOUS
 10
-7.891905
 20
9.062339
 40
0.75
 50
0.0
 51
90.0
  0
LINE
  8
ボルト／ビス
  6
CONTINUOUS
 10
-7.141903
 20
9.06234
 11
-7.141903
 21
9.06234
  0
LINE
  8
ボルト／ビス
  6
CONTINUOUS
 10
-7.891903
 20
8.31234
 11
-13.641903
 21
8.31234
  0
ARC
  8
ボルト／ビス
  6
CONTINUOUS
 10
-7.891905
 20
9.062339
 40
0.75
 50
-90.0
 51
0.0
  0
LINE
  8
ボルト／ビス
  6
CONTINUOUS
 10
-19.391903
 20
9.81234
 11
-13.641903
 21
9.81234
  0
ARC
  8
ボルト／ビス
  6
CONTINUOUS
 10
-19.391905
 20
9.062339
 40
0.75
 50
90.0
 51
180.0
  0
LINE
  8
ボルト／ビス
  6
CONTINUOUS
 10
-20.141903
 20
9.06234
 11
-20.141903
 21
9.06234
  0
LINE
  8
ボルト／ビス
  6
CONTINUOUS
 10
-19.391903
 20
8.31234
 11
-13.641903
 21
8.31234
  0
ARC
  8
ボルト／ビス
  6
CONTINUOUS
 10
-19.391905
 20
9.062339
 40
0.75
 50
180.0
 51
270.0
  0
ENDBLK
  0
BLOCK
  2
*DIM_0018
 70
    65
 10
0.0
 20
0.0
  0
LINE
  8
寸法
  6
BYBLOCK
 62
     0
 10
-13.641903
 20
31.015925
 11
-13.641903
 21
75.103917
  0
LINE
  8
寸法
  6
BYBLOCK
 62
     0
 10
-43.6419
 20
75.103917
 11
-13.641903
 21
75.103917
  0
POINT
  8
寸法
 62
     0
 10
-43.6419
 20
75.103917
  0
POINT
  8
寸法
 62
     0
 10
-13.641903
 20
75.103917
  0
TEXT
  7
TextStyle03
  8
寸法
  6
CONTINUOUS
 62
     0
 10
-30.24375
 20
75.475
  1
30
 40
3.0
 72
     5
 11
-27.05625
 21
75.475
  0
ENDBLK
  0
BLOCK
  2
*DIM_0019
 70
    65
 10
0.0
 20
0.0
  0
LINE
  8
寸法
  6
BYBLOCK
 62
     0
 10
6.358098
 20
21.107948
 11
6.358098
 21
75.103917
  0
LINE
  8
寸法
  6
BYBLOCK
 62
     0
 10
-13.641903
 20
75.103917
 11
6.358098
 21
75.103917
  0
POINT
  8
寸法
 62
     0
 10
6.358098
 20
75.103917
  0
TEXT
  7
TextStyle03
  8
寸法
  6
CONTINUOUS
 62
     0
 10
-5.24375
 20
75.475
  1
20
 40
3.0
 72
     5
 11
-2.05625
 21
75.475
  0
ENDBLK
  0
BLOCK
  2
*DIM_0020
 70
    65
 10
0.0
 20
0.0
  0
LINE
  8
寸法
  6
BYBLOCK
 62
     0
 10
34.158098
 20
-2.18766
 11
62.387227
 21
-2.18766
  0
LINE
  8
寸法
  6
BYBLOCK
 62
     0
 10
62.387227
 20
5.812337
 11
62.387227
 21
-2.18766
  0
POINT
  8
寸法
 62
     0
 10
62.387227
 20
5.812337
  0
POINT
  8
寸法
 62
     0
 10
62.387227
 20
-2.18766
  0
TEXT
  7
TextStyle03
  8
寸法
  6
CONTINUOUS
 62
     0
 10
62.0
 20
0.9
  1
8
 40
3.5
 50
90.0
 72
     5
 11
62.0
 21
2.65
  0
ENDBLK
  0
BLOCK
  2
*DIM_0021
 70
    65
 10
0.0
 20
0.0
  0
LINE
  8
寸法
  6
BYBLOCK
 62
     0
 10
-53.84628
 20
-58.68265
 11
62.387227
 21
-58.68265
  0
LINE
  8
寸法
  6
BYBLOCK
 62
     0
 10
62.387227
 20
-2.18766
 11
62.387227
 21
-58.68265
  0
POINT
  8
寸法
 62
     0
 10
62.387227
 20
-2.18766
  0
POINT
  8
寸法
 62
     0
 10
62.387227
 20
-58.68265
  0
TEXT
  7
TextStyle03
  8
寸法
  6
CONTINUOUS
 62
     0
 10
62.0
 20
-34.825
  1
56.5
 40
4.0
 50
90.0
 72
     5
 11
62.0
 21
-26.075
  0
ENDBLK
  0
BLOCK
  2
*GRP_0022
 70
    65
 10
0.0
 20
0.0
  0
POLYLINE
  8
寸法
  6
BYBLOCK
 62
     0
 66
     1
  0
VERTEX
  8
寸法
 10
26.704925
 20
0.379925
  0
VERTEX
  8
寸法
 10
41.220075
 20
-14.135228
  0
VERTEX
  8
寸法
 10
67.311363
 20
-14.135228
  0
SEQEND
  0
ENDBLK
  0
BLOCK
  2
*GRP_0023
 70
    65
 10
0.0
 20
0.0
  0
POLYLINE
  8
寸法
  6
BYBLOCK
 62
     0
 66
     1
  0
VERTEX
  8
寸法
 10
4.858102
 20
3.525
  0
VERTEX
  8
寸法
 10
-4.117918
 20
-5.45102
  0
VERTEX
  8
寸法
 10
-18.458332
 20
-5.45102
  0
SEQEND
  0
ENDBLK
  0
BLOCK
  2
*GRP_0024
 70
    65
 10
0.0
 20
0.0
  0
POLYLINE
  8
寸法
  6
BYBLOCK
 62
     0
 66
     1
  0
VERTEX
  8
寸法
 10
8.454793
 20
-4.245208
  0
VERTEX
  8
寸法
 10
25.407822
 20
-21.198237
  0
VERTEX
  8
寸法
 10
67.30606
 20
-21.198237
  0
SEQEND
  0
ENDBLK
  0
BLOCK
  2
*GRP_0025
 70
    65
 10
0.0
 20
0.0
  0
LINE
  8
ボルト／ビス
  6
CONTINUOUS
 10
-24.641907
 20
17.315963
 11
-24.641907
 21
19.315965
  0
LINE
  8
ボルト／ビス
  6
CONTINUOUS
 10
-24.641907
 20
19.315965
 11
-2.641903
 21
19.315965
  0
LINE
  8
ボルト／ビス
  6
CONTINUOUS
 10
-2.641903
 20
19.315965
 11
-2.641903
 21
17.315963
  0
LINE
  8
ボルト／ビス
  6
CONTINUOUS
 10
-24.641907
 20
17.315963
 11
-2.641903
 21
17.315963
  0
LINE
  8
ボルト／ビス
  6
CONTINUOUS
 10
-22.641905
 20
20.315963
 11
-22.641905
 21
19.315965
  0
LINE
  8
ボルト／ビス
  6
CONTINUOUS
 10
-22.641905
 20
20.315963
 11
-4.641905
 21
20.315963
  0
LINE
  8
ボルト／ビス
  6
CONTINUOUS
 10
-4.641905
 20
20.315963
 11
-4.641905
 21
19.315965
  0
LINE
  8
ボルト／ビス
  6
CONTINUOUS
 62
    64
 10
-18.453155
 20
26.315963
 11
-19.415405
 21
25.965735
  0
ARC
  8
ボルト／ビス
  6
CONTINUOUS
 62
    64
 10
-17.97203
 20
23.166612
 40
3.149352
 50
62.721967
 51
90.0
  0
ARC
  8
ボルト／ビス
  6
CONTINUOUS
 62
    64
 10
-13.641903
 20
14.243897
 40
12.072067
 50
76.165002
 51
103.834985
  0
LINE
  8
ボルト／ビス
  6
CONTINUOUS
 62
    64
 10
-8.830655
 20
26.315963
 11
-7.868405
 21
25.965735
  0
ARC
  8
ボルト／ビス
  6
CONTINUOUS
 62
    64
 10
-9.311775
 20
23.166612
 40
3.149352
 50
90.0
 51
117.278033
  0
LINE
  8
ボルト／ビス
  6
CONTINUOUS
 62
    64
 10
-18.453155
 20
26.315963
 11
-8.830655
 21
26.315963
  0
LINE
  8
ボルト／ビス
  6
CONTINUOUS
 62
    64
 10
-7.868405
 20
25.965735
 11
-7.868405
 21
22.315965
  0
LINE
  8
ボルト／ビス
  6
CONTINUOUS
 62
    64
 10
-10.755155
 20
25.965735
 11
-10.755155
 21
22.315965
  0
LINE
  8
ボルト／ビス
  6
CONTINUOUS
 62
    64
 10
-19.415405
 20
25.965735
 11
-19.415405
 21
22.315965
  0
LINE
  8
ボルト／ビス
  6
CONTINUOUS
 62
    64
 10
-16.528655
 20
25.965735
 11
-16.528655
 21
22.315965
  0
LINE
  8
ボルト／ビス
  6
CONTINUOUS
 10
-19.415405
 20
22.315965
 11
-7.868405
 21
22.315965
  0
LINE
  8
ボルト／ビス
  6
CONTINUOUS
 10
-19.641905
 20
22.315965
 11
-19.641905
 21
20.315963
  0
LINE
  8
ボルト／ビス
  6
CONTINUOUS
 10
-19.641905
 20
22.315965
 11
-7.641905
 21
22.315965
  0
LINE
  8
ボルト／ビス
  6
CONTINUOUS
 10
-7.641905
 20
22.315965
 11
-7.641905
 21
20.315963
  0
LINE
  8
ボルト／ビス
  6
CONTINUOUS
 62
    64
 10
-11.341903
 20
17.315963
 11
-11.341903
 21
-2.684033
  0
LINE
  8
ボルト／ビス
  6
CONTINUOUS
 62
    64
 10
-15.941907
 20
17.315963
 11
-15.941907
 21
-2.684033
  0
LINE
  8
ボルト／ビス
  6
CONTINUOUS
 62
    64
 10
-15.941907
 20
-2.684033
 11
-11.341903
 21
-2.684033
  0
LINE
  8
ボルト／ビス
  6
CONTINUOUS
 62
    64
 10
-10.641905
 20
-1.684035
 11
-11.341903
 21
-2.684033
  0
LINE
  8
ボルト／ビス
  6
CONTINUOUS
 62
    64
 10
-16.641905
 20
-1.684035
 11
-15.941907
 21
-2.684033
  0
LINE
  8
ボルト／ビス
  6
CONTINUOUS
 62
    64
 10
-16.641905
 20
-1.684035
 11
-10.641905
 21
-1.684035
  0
LINE
  8
ボルト／ビス
  6
CONTINUOUS
 62
    64
 10
-15.941907
 20
-2.684033
 11
-11.341903
 21
-2.684033
  0
LINE
  8
ボルト／ビス
  6
CONTINUOUS
 62
    64
 10
-16.641905
 20
17.315963
 11
-16.641905
 21
-1.684035
  0
LINE
  8
ボルト／ビス
  6
CONTINUOUS
 62
    64
 10
-10.641905
 20
17.315963
 11
-10.641905
 21
-1.684035
  0
ENDBLK
  0
BLOCK
  2
*GRP_0026
 70
    65
 10
0.0
 20
0.0
  0
LINE
  8
ゴム等
  6
CONTINUOUS
 10
32.158093
 20
5.812337
 11
30.658105
 21
5.812337
  0
LINE
  8
ゴム等
  6
CONTINUOUS
 10
30.6581
 20
0.312342
 11
30.658105
 21
5.812337
  0
LINE
  8
ゴム等
  6
CONTINUOUS
 10
22.158098
 20
-0.687658
 11
29.658095
 21
-0.687655
  0
LINE
  8
ゴム等
  6
CONTINUOUS
 10
30.6581
 20
0.312342
 11
29.658095
 21
-0.687655
  0
LINE
  8
ゴム等
  6
CONTINUOUS
 10
32.158093
 20
5.812337
 11
32.158102
 21
7.312342
  0
LINE
  8
ゴム等
  6
CONTINUOUS
 10
32.158102
 20
7.312342
 11
22.1581
 21
7.31234
  0
LINE
  8
ゴム等
  6
CONTINUOUS
 10
22.158098
 20
-0.687658
 11
22.1581
 21
7.31234
  0
LINE
  8
ゴム等
  6
CONTINUOUS
 10
31.17785
 20
7.31234
 11
32.1581
 21
6.332095
  0
LINE
  8
ゴム等
  6
CONTINUOUS
 10
29.763643
 20
7.312337
 11
31.263638
 21
5.812337
  0
LINE
  8
ゴム等
  6
CONTINUOUS
 10
28.349423
 20
7.31234
 11
30.658102
 21
5.00366
  0
LINE
  8
ゴム等
  6
CONTINUOUS
 10
26.935215
 20
7.312337
 11
30.658105
 21
3.589452
  0
LINE
  8
ゴム等
  6
CONTINUOUS
 10
25.52101
 20
7.312345
 11
30.6581
 21
2.17524
  0
LINE
  8
ゴム等
  6
CONTINUOUS
 10
24.106785
 20
7.31234
 11
30.6581
 21
0.761023
  0
LINE
  8
ゴム等
  6
CONTINUOUS
 10
22.692577
 20
7.312337
 11
30.175338
 21
-0.170423
  0
LINE
  8
ゴム等
  6
CONTINUOUS
 10
22.158098
 20
6.432605
 11
29.278357
 21
-0.687652
  0
LINE
  8
ゴム等
  6
CONTINUOUS
 10
22.158098
 20
5.018388
 11
27.86414
 21
-0.687652
  0
LINE
  8
ゴム等
  6
CONTINUOUS
 10
22.158093
 20
3.604175
 11
26.449925
 21
-0.687658
  0
LINE
  8
ゴム等
  6
CONTINUOUS
 10
22.158098
 20
2.18995
 11
25.03571
 21
-0.687662
  0
LINE
  8
ゴム等
  6
CONTINUOUS
 10
22.158095
 20
0.77575
 11
23.621502
 21
-0.687665
  0
ENDBLK
  0
BLOCK
  2
*DIM_0027
 70
    65
 10
0.0
 20
0.0
  0
LINE
  8
寸法
  6
BYBLOCK
 62
     0
 10
35.158093
 20
5.812337
 11
62.387227
 21
5.812337
  0
LINE
  8
寸法
  6
BYBLOCK
 62
     0
 10
35.158102
 20
7.312342
 11
62.387227
 21
7.312342
  0
LINE
  8
寸法
  6
BYBLOCK
 62
     0
 10
62.387227
 20
5.812337
 11
62.387227
 21
7.312342
  0
POINT
  8
寸法
 62
     0
 10
62.387227
 20
5.812337
  0
POINT
  8
寸法
 62
     0
 10
62.387227
 20
7.312342
  0
TEXT
  7
TextStyle03
  8
寸法
  6
CONTINUOUS
 62
     0
 10
67.1
 20
3.325
  1
1.5
 40
4.0
 50
90.0
 72
     5
 11
67.1
 21
9.825
  0
ENDBLK
  0
BLOCK
  2
*GRP_0028
 70
    65
 10
0.0
 20
0.0
  0
POLYLINE
  8
ガラス
  6
CONTINUOUS
 66
     1
 70
     4
  0
VERTEX
  8
ガラス
 10
14.225
 20
1.65
 70
     8
  0
VERTEX
  8
ガラス
 10
14.3
 20
1.65
 70
     8
  0
VERTEX
  8
ガラス
 10
14.4
 20
1.65
 70
     8
  0
VERTEX
  8
ガラス
 10
14.5
 20
1.675
 70
     8
  0
VERTEX
  8
ガラス
 10
14.6
 20
1.675
 70
     8
  0
VERTEX
  8
ガラス
 10
14.675
 20
1.7
 70
     8
  0
VERTEX
  8
ガラス
 10
14.775
 20
1.7
 70
     8
  0
VERTEX
  8
ガラス
 10
14.875
 20
1.7
 70
     8
  0
VERTEX
  8
ガラス
 10
14.95
 20
1.7
 70
     8
  0
VERTEX
  8
ガラス
 10
15.05
 20
1.725
 70
     8
  0
VERTEX
  8
ガラス
 10
15.125
 20
1.725
 70
     8
  0
VERTEX
  8
ガラス
 10
15.225
 20
1.725
 70
     8
  0
VERTEX
  8
ガラス
 10
15.3
 20
1.725
 70
     8
  0
VERTEX
  8
ガラス
 10
15.4
 20
1.7
 70
     8
  0
VERTEX
  8
ガラス
 10
15.475
 20
1.7
 70
     8
  0
VERTEX
  8
ガラス
 10
15.575
 20
1.7
 70
     8
  0
VERTEX
  8
ガラス
 10
15.65
 20
1.675
 70
     8
  0
VERTEX
  8
ガラス
 10
15.725
 20
1.675
 70
     8
  0
VERTEX
  8
ガラス
 10
15.825
 20
1.65
 70
     8
  0
VERTEX
  8
ガラス
 10
15.9
 20
1.625
 70
     8
  0
VERTEX
  8
ガラス
 10
15.975
 20
1.6
 70
     8
  0
VERTEX
  8
ガラス
 10
16.05
 20
1.575
 70
     8
  0
VERTEX
  8
ガラス
 10
16.125
 20
1.525
 70
     8
  0
VERTEX
  8
ガラス
 10
16.2
 20
1.5
 70
     8
  0
VERTEX
  8
ガラス
 10
16.275
 20
1.45
 70
     8
  0
VERTEX
  8
ガラス
 10
16.35
 20
1.4
 70
     8
  0
VERTEX
  8
ガラス
 10
16.425
 20
1.35
 70
     8
  0
VERTEX
  8
ガラス
 10
16.475
 20
1.3
 70
     8
  0
VERTEX
  8
ガラス
 10
16.55
 20
1.25
 70
     8
  0
VERTEX
  8
ガラス
 10
16.625
 20
1.2
 70
     8
  0
VERTEX
  8
ガラス
 10
16.675
 20
1.15
 70
     8
  0
VERTEX
  8
ガラス
 10
16.75
 20
1.075
 70
     8
  0
VERTEX
  8
ガラス
 10
16.8
 20
1.025
 70
     8
  0
VERTEX
  8
ガラス
 10
16.875
 20
0.95
 70
     8
  0
VERTEX
  8
ガラス
 10
16.95
 20
0.875
 70
     8
  0
VERTEX
  8
ガラス
 10
17.0
 20
0.825
 70
     8
  0
VERTEX
  8
ガラス
 10
17.075
 20
0.75
 70
     8
  0
VERTEX
  8
ガラス
 10
17.125
 20
0.675
 70
     8
  0
VERTEX
  8
ガラス
 10
17.175
 20
0.625
 70
     8
  0
VERTEX
  8
ガラス
 10
17.25
 20
0.55
 70
     8
  0
VERTEX
  8
ガラス
 10
17.3
 20
0.475
 70
     8
  0
SEQEND
  0
POLYLINE
  8
ガラス
  6
CONTINUOUS
 66
     1
 70
     4
  0
VERTEX
  8
ガラス
 10
17.3
 20
0.475
 70
     8
  0
VERTEX
  8
ガラス
 10
17.25
 20
0.475
 70
     8
  0
VERTEX
  8
ガラス
 10
17.175
 20
0.45
 70
     8
  0
VERTEX
  8
ガラス
 10
17.125
 20
0.45
 70
     8
  0
VERTEX
  8
ガラス
 10
17.075
 20
0.45
 70
     8
  0
VERTEX
  8
ガラス
 10
17.0
 20
0.45
 70
     8
  0
VERTEX
  8
ガラス
 10
16.95
 20
0.425
 70
     8
  0
VERTEX
  8
ガラス
 10
16.875
 20
0.425
 70
     8
  0
VERTEX
  8
ガラス
 10
16.825
 20
0.425
 70
     8
  0
VERTEX
  8
ガラス
 10
16.75
 20
0.4
 70
     8
  0
VERTEX
  8
ガラス
 10
16.7
 20
0.4
 70
     8
  0
VERTEX
  8
ガラス
 10
16.625
 20
0.4
 70
     8
  0
VERTEX
  8
ガラス
 10
16.575
 20
0.375
 70
     8
  0
VERTEX
  8
ガラス
 10
16.525
 20
0.375
 70
     8
  0
VERTEX
  8
ガラス
 10
16.45
 20
0.35
 70
     8
  0
VERTEX
  8
ガラス
 10
16.4
 20
0.35
 70
     8
  0
VERTEX
  8
ガラス
 10
16.325
 20
0.35
 70
     8
  0
VERTEX
  8
ガラス
 10
16.275
 20
0.325
 70
     8
  0
VERTEX
  8
ガラス
 10
16.225
 20
0.325
 70
     8
  0
VERTEX
  8
ガラス
 10
16.15
 20
0.3
 70
     8
  0
VERTEX
  8
ガラス
 10
16.1
 20
0.275
 70
     8
  0
VERTEX
  8
ガラス
 10
16.025
 20
0.275
 70
     8
  0
VERTEX
  8
ガラス
 10
15.975
 20
0.25
 70
     8
  0
VERTEX
  8
ガラス
 10
15.925
 20
0.25
 70
     8
  0
VERTEX
  8
ガラス
 10
15.85
 20
0.225
 70
     8
  0
VERTEX
  8
ガラス
 10
15.8
 20
0.2
 70
     8
  0
VERTEX
  8
ガラス
 10
15.75
 20
0.175
 70
     8
  0
VERTEX
  8
ガラス
 10
15.675
 20
0.175
 70
     8
  0
VERTEX
  8
ガラス
 10
15.625
 20
0.15
 70
     8
  0
VERTEX
  8
ガラス
 10
15.575
 20
0.125
 70
     8
  0
VERTEX
  8
ガラス
 10
15.525
 20
0.1
 70
     8
  0
VERTEX
  8
ガラス
 10
15.45
 20
0.075
 70
     8
  0
VERTEX
  8
ガラス
 10
15.4
 20
0.05
 70
     8
  0
VERTEX
  8
ガラス
 10
15.35
 20
0.025
 70
     8
  0
VERTEX
  8
ガラス
 10
15.275
 20
0.025
 70
     8
  0
VERTEX
  8
ガラス
 10
15.225
 20
0.0
 70
     8
  0
VERTEX
  8
ガラス
 10
15.175
 20
-0.025
 70
     8
  0
VERTEX
  8
ガラス
 10
15.125
 20
-0.05
 70
     8
  0
VERTEX
  8
ガラス
 10
15.05
 20
-0.075
 70
     8
  0
VERTEX
  8
ガラス
 10
15.0
 20
-0.1
 70
     8
  0
VERTEX
  8
ガラス
 10
14.95
 20
-0.125
 70
     8
  0
SEQEND
  0
ARC
  8
ガラス
  6
CONTINUOUS
 10
14.592942
 20
0.769835
 40
0.955135
 50
112.264588
 51
292.264588
  0
ENDBLK
  0
BLOCK
  2
*GRP_0029
 70
    65
 10
0.0
 20
0.0
  0
POLYLINE
  8
ガラス
  6
CONTINUOUS
 66
     1
 70
     4
  0
VERTEX
  8
ガラス
 10
3.85
 20
1.65
 70
     8
  0
VERTEX
  8
ガラス
 10
3.95
 20
1.65
 70
     8
  0
VERTEX
  8
ガラス
 10
4.05
 20
1.65
 70
     8
  0
VERTEX
  8
ガラス
 10
4.125
 20
1.675
 70
     8
  0
VERTEX
  8
ガラス
 10
4.225
 20
1.675
 70
     8
  0
VERTEX
  8
ガラス
 10
4.325
 20
1.7
 70
     8
  0
VERTEX
  8
ガラス
 10
4.425
 20
1.7
 70
     8
  0
VERTEX
  8
ガラス
 10
4.5
 20
1.7
 70
     8
  0
VERTEX
  8
ガラス
 10
4.6
 20
1.7
 70
     8
  0
VERTEX
  8
ガラス
 10
4.675
 20
1.725
 70
     8
  0
VERTEX
  8
ガラス
 10
4.775
 20
1.725
 70
     8
  0
VERTEX
  8
ガラス
 10
4.875
 20
1.725
 70
     8
  0
VERTEX
  8
ガラス
 10
4.95
 20
1.725
 70
     8
  0
VERTEX
  8
ガラス
 10
5.05
 20
1.7
 70
     8
  0
VERTEX
  8
ガラス
 10
5.125
 20
1.7
 70
     8
  0
VERTEX
  8
ガラス
 10
5.2
 20
1.7
 70
     8
  0
VERTEX
  8
ガラス
 10
5.3
 20
1.675
 70
     8
  0
VERTEX
  8
ガラス
 10
5.375
 20
1.675
 70
     8
  0
VERTEX
  8
ガラス
 10
5.45
 20
1.65
 70
     8
  0
VERTEX
  8
ガラス
 10
5.55
 20
1.625
 70
     8
  0
VERTEX
  8
ガラス
 10
5.625
 20
1.6
 70
     8
  0
VERTEX
  8
ガラス
 10
5.7
 20
1.575
 70
     8
  0
VERTEX
  8
ガラス
 10
5.775
 20
1.525
 70
     8
  0
VERTEX
  8
ガラス
 10
5.85
 20
1.5
 70
     8
  0
VERTEX
  8
ガラス
 10
5.925
 20
1.45
 70
     8
  0
VERTEX
  8
ガラス
 10
5.975
 20
1.4
 70
     8
  0
VERTEX
  8
ガラス
 10
6.05
 20
1.35
 70
     8
  0
VERTEX
  8
ガラス
 10
6.125
 20
1.3
 70
     8
  0
VERTEX
  8
ガラス
 10
6.2
 20
1.25
 70
     8
  0
VERTEX
  8
ガラス
 10
6.25
 20
1.2
 70
     8
  0
VERTEX
  8
ガラス
 10
6.325
 20
1.15
 70
     8
  0
VERTEX
  8
ガラス
 10
6.4
 20
1.075
 70
     8
  0
VERTEX
  8
ガラス
 10
6.45
 20
1.025
 70
     8
  0
VERTEX
  8
ガラス
 10
6.525
 20
0.95
 70
     8
  0
VERTEX
  8
ガラス
 10
6.575
 20
0.875
 70
     8
  0
VERTEX
  8
ガラス
 10
6.65
 20
0.825
 70
     8
  0
VERTEX
  8
ガラス
 10
6.7
 20
0.75
 70
     8
  0
VERTEX
  8
ガラス
 10
6.775
 20
0.675
 70
     8
  0
VERTEX
  8
ガラス
 10
6.825
 20
0.625
 70
     8
  0
VERTEX
  8
ガラス
 10
6.875
 20
0.55
 70
     8
  0
VERTEX
  8
ガラス
 10
6.95
 20
0.475
 70
     8
  0
SEQEND
  0
POLYLINE
  8
ガラス
  6
CONTINUOUS
 66
     1
 70
     4
  0
VERTEX
  8
ガラス
 10
6.95
 20
0.475
 70
     8
  0
VERTEX
  8
ガラス
 10
6.875
 20
0.475
 70
     8
  0
VERTEX
  8
ガラス
 10
6.825
 20
0.45
 70
     8
  0
VERTEX
  8
ガラス
 10
6.775
 20
0.45
 70
     8
  0
VERTEX
  8
ガラス
 10
6.7
 20
0.45
 70
     8
  0
VERTEX
  8
ガラス
 10
6.65
 20
0.45
 70
     8
  0
VERTEX
  8
ガラス
 10
6.575
 20
0.425
 70
     8
  0
VERTEX
  8
ガラス
 10
6.525
 20
0.425
 70
     8
  0
VERTEX
  8
ガラス
 10
6.45
 20
0.425
 70
     8
  0
VERTEX
  8
ガラス
 10
6.4
 20
0.4
 70
     8
  0
VERTEX
  8
ガラス
 10
6.325
 20
0.4
 70
     8
  0
VERTEX
  8
ガラス
 10
6.275
 20
0.4
 70
     8
  0
VERTEX
  8
ガラス
 10
6.225
 20
0.375
 70
     8
  0
VERTEX
  8
ガラス
 10
6.15
 20
0.375
 70
     8
  0
VERTEX
  8
ガラス
 10
6.1
 20
0.35
 70
     8
  0
VERTEX
  8
ガラス
 10
6.025
 20
0.35
 70
     8
  0
VERTEX
  8
ガラス
 10
5.975
 20
0.35
 70
     8
  0
VERTEX
  8
ガラス
 10
5.925
 20
0.325
 70
     8
  0
VERTEX
  8
ガラス
 10
5.85
 20
0.325
 70
     8
  0
VERTEX
  8
ガラス
 10
5.8
 20
0.3
 70
     8
  0
VERTEX
  8
ガラス
 10
5.725
 20
0.275
 70
     8
  0
VERTEX
  8
ガラス
 10
5.675
 20
0.275
 70
     8
  0
VERTEX
  8
ガラス
 10
5.625
 20
0.25
 70
     8
  0
VERTEX
  8
ガラス
 10
5.55
 20
0.25
 70
     8
  0
VERTEX
  8
ガラス
 10
5.5
 20
0.225
 70
     8
  0
VERTEX
  8
ガラス
 10
5.45
 20
0.2
 70
     8
  0
VERTEX
  8
ガラス
 10
5.375
 20
0.175
 70
     8
  0
VERTEX
  8
ガラス
 10
5.325
 20
0.175
 70
     8
  0
VERTEX
  8
ガラス
 10
5.275
 20
0.15
 70
     8
  0
VERTEX
  8
ガラス
 10
5.2
 20
0.125
 70
     8
  0
VERTEX
  8
ガラス
 10
5.15
 20
0.1
 70
     8
  0
VERTEX
  8
ガラス
 10
5.1
 20
0.075
 70
     8
  0
VERTEX
  8
ガラス
 10
5.05
 20
0.05
 70
     8
  0
VERTEX
  8
ガラス
 10
4.975
 20
0.025
 70
     8
  0
VERTEX
  8
ガラス
 10
4.925
 20
0.025
 70
     8
  0
VERTEX
  8
ガラス
 10
4.875
 20
0.0
 70
     8
  0
VERTEX
  8
ガラス
 10
4.8
 20
-0.025
 70
     8
  0
VERTEX
  8
ガラス
 10
4.75
 20
-0.05
 70
     8
  0
VERTEX
  8
ガラス
 10
4.7
 20
-0.075
 70
     8
  0
VERTEX
  8
ガラス
 10
4.65
 20
-0.1
 70
     8
  0
VERTEX
  8
ガラス
 10
4.575
 20
-0.125
 70
     8
  0
SEQEND
  0
ARC
  8
ガラス
  6
CONTINUOUS
 10
4.233154
 20
0.769835
 40
0.955135
 50
112.264588
 51
292.264588
  0
ENDBLK
  0
BLOCK
  2
*GRP_0030
 70
    65
 10
0.0
 20
0.0
  0
POLYLINE
  8
ガラス
  6
CONTINUOUS
 66
     1
 70
     4
  0
VERTEX
  8
ガラス
 10
-0.575
 20
-4.425
 70
     8
  0
VERTEX
  8
ガラス
 10
-0.525
 20
-4.325
 70
     8
  0
VERTEX
  8
ガラス
 10
-0.5
 20
-4.25
 70
     8
  0
VERTEX
  8
ガラス
 10
-0.45
 20
-4.175
 70
     8
  0
VERTEX
  8
ガラス
 10
-0.4
 20
-4.1
 70
     8
  0
VERTEX
  8
ガラス
 10
-0.35
 20
-4.0
 70
     8
  0
VERTEX
  8
ガラス
 10
-0.3
 20
-3.925
 70
     8
  0
VERTEX
  8
ガラス
 10
-0.25
 20
-3.85
 70
     8
  0
VERTEX
  8
ガラス
 10
-0.2
 20
-3.775
 70
     8
  0
VERTEX
  8
ガラス
 10
-0.15
 20
-3.7
 70
     8
  0
VERTEX
  8
ガラス
 10
-0.1
 20
-3.625
 70
     8
  0
VERTEX
  8
ガラス
 10
-0.05
 20
-3.55
 70
     8
  0
VERTEX
  8
ガラス
 10
0.0
 20
-3.475
 70
     8
  0
VERTEX
  8
ガラス
 10
0.05
 20
-3.425
 70
     8
  0
VERTEX
  8
ガラス
 10
0.1
 20
-3.35
 70
     8
  0
VERTEX
  8
ガラス
 10
0.175
 20
-3.275
 70
     8
  0
VERTEX
  8
ガラス
 10
0.225
 20
-3.225
 70
     8
  0
VERTEX
  8
ガラス
 10
0.275
 20
-3.175
 70
     8
  0
VERTEX
  8
ガラス
 10
0.35
 20
-3.1
 70
     8
  0
VERTEX
  8
ガラス
 10
0.425
 20
-3.05
 70
     8
  0
VERTEX
  8
ガラス
 10
0.475
 20
-3.0
 70
     8
  0
VERTEX
  8
ガラス
 10
0.55
 20
-2.975
 70
     8
  0
VERTEX
  8
ガラス
 10
0.625
 20
-2.925
 70
     8
  0
VERTEX
  8
ガラス
 10
0.7
 20
-2.875
 70
     8
  0
VERTEX
  8
ガラス
 10
0.775
 20
-2.85
 70
     8
  0
VERTEX
  8
ガラス
 10
0.85
 20
-2.825
 70
     8
  0
VERTEX
  8
ガラス
 10
0.925
 20
-2.8
 70
     8
  0
VERTEX
  8
ガラス
 10
1.0
 20
-2.775
 70
     8
  0
VERTEX
  8
ガラス
 10
1.1
 20
-2.75
 70
     8
  0
VERTEX
  8
ガラス
 10
1.175
 20
-2.725
 70
     8
  0
VERTEX
  8
ガラス
 10
1.275
 20
-2.7
 70
     8
  0
VERTEX
  8
ガラス
 10
1.35
 20
-2.675
 70
     8
  0
VERTEX
  8
ガラス
 10
1.45
 20
-2.675
 70
     8
  0
VERTEX
  8
ガラス
 10
1.525
 20
-2.65
 70
     8
  0
VERTEX
  8
ガラス
 10
1.625
 20
-2.65
 70
     8
  0
VERTEX
  8
ガラス
 10
1.7
 20
-2.625
 70
     8
  0
VERTEX
  8
ガラス
 10
1.8
 20
-2.625
 70
     8
  0
VERTEX
  8
ガラス
 10
1.9
 20
-2.6
 70
     8
  0
VERTEX
  8
ガラス
 10
1.975
 20
-2.6
 70
     8
  0
VERTEX
  8
ガラス
 10
2.075
 20
-2.6
 70
     8
  0
VERTEX
  8
ガラス
 10
2.175
 20
-2.575
 70
     8
  0
SEQEND
  0
POLYLINE
  8
ガラス
  6
CONTINUOUS
 66
     1
 70
     4
  0
VERTEX
  8
ガラス
 10
2.175
 20
-2.575
 70
     8
  0
VERTEX
  8
ガラス
 10
2.15
 20
-2.625
 70
     8
  0
VERTEX
  8
ガラス
 10
2.1
 20
-2.675
 70
     8
  0
VERTEX
  8
ガラス
 10
2.075
 20
-2.75
 70
     8
  0
VERTEX
  8
ガラス
 10
2.05
 20
-2.8
 70
     8
  0
VERTEX
  8
ガラス
 10
2.025
 20
-2.85
 70
     8
  0
VERTEX
  8
ガラス
 10
2.0
 20
-2.9
 70
     8
  0
VERTEX
  8
ガラス
 10
1.95
 20
-2.95
 70
     8
  0
VERTEX
  8
ガラス
 10
1.925
 20
-3.0
 70
     8
  0
VERTEX
  8
ガラス
 10
1.9
 20
-3.075
 70
     8
  0
VERTEX
  8
ガラス
 10
1.875
 20
-3.125
 70
     8
  0
VERTEX
  8
ガラス
 10
1.85
 20
-3.175
 70
     8
  0
VERTEX
  8
ガラス
 10
1.825
 20
-3.225
 70
     8
  0
VERTEX
  8
ガラス
 10
1.8
 20
-3.275
 70
     8
  0
VERTEX
  8
ガラス
 10
1.775
 20
-3.35
 70
     8
  0
VERTEX
  8
ガラス
 10
1.725
 20
-3.4
 70
     8
  0
VERTEX
  8
ガラス
 10
1.7
 20
-3.45
 70
     8
  0
VERTEX
  8
ガラス
 10
1.675
 20
-3.5
 70
     8
  0
VERTEX
  8
ガラス
 10
1.65
 20
-3.55
 70
     8
  0
VERTEX
  8
ガラス
 10
1.65
 20
-3.625
 70
     8
  0
VERTEX
  8
ガラス
 10
1.625
 20
-3.675
 70
     8
  0
VERTEX
  8
ガラス
 10
1.6
 20
-3.725
 70
     8
  0
VERTEX
  8
ガラス
 10
1.575
 20
-3.8
 70
     8
  0
VERTEX
  8
ガラス
 10
1.55
 20
-3.85
 70
     8
  0
VERTEX
  8
ガラス
 10
1.525
 20
-3.9
 70
     8
  0
VERTEX
  8
ガラス
 10
1.5
 20
-3.95
 70
     8
  0
VERTEX
  8
ガラス
 10
1.5
 20
-4.025
 70
     8
  0
VERTEX
  8
ガラス
 10
1.475
 20
-4.075
 70
     8
  0
VERTEX
  8
ガラス
 10
1.45
 20
-4.125
 70
     8
  0
VERTEX
  8
ガラス
 10
1.45
 20
-4.2
 70
     8
  0
VERTEX
  8
ガラス
 10
1.425
 20
-4.25
 70
     8
  0
VERTEX
  8
ガラス
 10
1.4
 20
-4.325
 70
     8
  0
VERTEX
  8
ガラス
 10
1.4
 20
-4.375
 70
     8
  0
VERTEX
  8
ガラス
 10
1.375
 20
-4.425
 70
     8
  0
VERTEX
  8
ガラス
 10
1.375
 20
-4.5
 70
     8
  0
VERTEX
  8
ガラス
 10
1.35
 20
-4.55
 70
     8
  0
VERTEX
  8
ガラス
 10
1.325
 20
-4.625
 70
     8
  0
VERTEX
  8
ガラス
 10
1.325
 20
-4.675
 70
     8
  0
VERTEX
  8
ガラス
 10
1.3
 20
-4.725
 70
     8
  0
VERTEX
  8
ガラス
 10
1.3
 20
-4.8
 70
     8
  0
VERTEX
  8
ガラス
 10
1.275
 20
-4.85
 70
     8
  0
SEQEND
  0
ARC
  8
ガラス
  6
CONTINUOUS
 10
0.363532
 20
-4.621357
 40
0.955135
 50
166.72691
 51
346.72691
  0
ENDBLK
  0
ENDSEC
  0
SECTION
  2
ENTITIES
  0
POLYLINE
  8
通り芯
  6
CONTINUOUS
 66
     1
 70
     1
  0
VERTEX
  8
通り芯
 10
-210.0
 20
-148.5
  0
VERTEX
  8
通り芯
 10
210.0
 20
-148.5
  0
VERTEX
  8
通り芯
 10
210.0
 20
148.5
  0
VERTEX
  8
通り芯
 10
-210.0
 20
148.5
  0
SEQEND
  0
INSERT
  2
*GRP_0001
  8
型材断面
  6
CONTINUOUS
 10
0.0
 20
0.0
  0
LINE
  8
型材断面
  6
CONTINUOUS
 10
-13.641903
 20
3.215922
 11
-13.641903
 21
22.215922
  0
POLYLINE
  8
型材断面
  6
CONTINUOUS
 66
     1
  0
VERTEX
  8
型材断面
 10
131.915187
 20
82.413593
  0
VERTEX
  8
型材断面
 10
125.890225
 20
84.265272
  0
VERTEX
  8
型材断面
 10
125.66441
 20
82.413593
  0
SEQEND
  0
POLYLINE
  8
型材断面
  6
CONTINUOUS
 66
     1
  0
VERTEX
  8
型材断面
 10
129.002047
 20
82.413593
  0
VERTEX
  8
型材断面
 10
122.977085
 20
84.265272
  0
VERTEX
  8
型材断面
 10
122.75127
 20
82.413593
  0
SEQEND
  0
LINE
  8
型材断面
  6
CONTINUOUS
 10
4.858102
 20
9.81234
 11
-23.641897
 21
9.81234
  0
LINE
  8
型材断面
  6
CONTINUOUS
 10
-23.641897
 20
11.31234
 11
-23.641897
 21
9.81234
  0
ARC
  8
型材断面
  6
CONTINUOUS
 10
4.858103
 20
9.812341
 40
1.5
 50
0.0
 51
90.0
  0
LINE
  8
型材断面
  6
CONTINUOUS
 10
-58.34628
 20
-58.68265
 11
-58.34628
 21
-45.18265
  0
LINE
  8
型材断面
  6
CONTINUOUS
 10
-70.34628
 20
-43.68265
 11
-70.34628
 21
-31.286833
  0
LINE
  8
型材断面
  6
CONTINUOUS
 10
-58.34628
 20
-58.68265
 11
-56.84628
 21
-58.68265
  0
LINE
  8
型材断面
  6
CONTINUOUS
 10
4.858102
 20
9.81234
 11
4.858102
 21
-6.31416
  0
ARC
  8
型材断面
  6
CONTINUOUS
 10
4.858103
 20
-6.314159
 40
1.5
 50
-72.715162
 51
0.0
  0
ARC
  8
型材断面
  6
CONTINUOUS
 10
-70.34628
 20
-31.286831
 40
1.5
 50
107.284838
 51
180.0
  0
ARC
  8
型材断面
  6
CONTINUOUS
 10
-70.34628
 20
-43.682649
 40
1.5
 50
180.0
 51
270.0
  0
ARC
  8
型材断面
  6
CONTINUOUS
 10
-58.34628
 20
-45.182649
 40
1.5
 50
0.0
 51
90.0
  0
LINE
  8
型材断面
  6
CONTINUOUS
 10
-70.34628
 20
-43.68265
 11
-56.84628
 21
-43.68265
  0
LINE
  8
型材断面
  6
CONTINUOUS
 10
-56.84628
 20
-58.68265
 11
-56.84628
 21
-43.68265
  0
LINE
  8
型材断面
  6
CONTINUOUS
 62
    47
 10
-71.84628
 20
-45.18265
 11
-71.84628
 21
-30.18265
  0
LINE
  8
型材断面
  6
CONTINUOUS
 62
    47
 10
4.858102
 20
-6.31416
 11
-71.84628
 21
-30.18265
  0
LINE
  8
型材断面
  6
CONTINUOUS
 10
-70.34628
 20
-31.286833
 11
6.358102
 21
-7.418343
  0
LINE
  8
型材断面
  6
CONTINUOUS
 10
-23.641897
 20
11.31234
 11
6.358102
 21
11.31234
  0
LINE
  8
型材断面
  6
CONTINUOUS
 10
-2.141897
 20
12.81234
 11
-2.141897
 21
11.31234
  0
LINE
  8
型材断面
  6
CONTINUOUS
 10
6.358102
 20
12.81234
 11
-2.141897
 21
12.81234
  0
ARC
  8
型材断面
  6
CONTINUOUS
 10
6.358102
 20
11.312342
 40
1.5
 50
0.0
 51
90.0
  0
LINE
  8
型材断面
  6
CONTINUOUS
 10
6.358102
 20
11.31234
 11
6.358102
 21
-7.418343
  0
LINE
  8
型材断面
  6
CONTINUOUS
 10
32.158093
 20
5.812337
 11
30.658095
 21
5.812337
  0
LINE
  8
型材断面
  6
CONTINUOUS
 10
30.658098
 20
-0.68766
 11
7.8581
 21
-0.68766
  0
ARC
  8
型材断面
  6
CONTINUOUS
 10
7.8581
 20
-0.687659
 40
1.5
 50
180.0
 51
270.0
  0
ARC
  8
型材断面
  6
CONTINUOUS
 10
30.658097
 20
-0.687659
 40
1.5
 50
-90.0
 51
0.000018
  0
LINE
  8
型材断面
  6
CONTINUOUS
 10
32.158095
 20
5.812337
 11
32.158098
 21
-2.18766
  0
LINE
  8
型材断面
  6
CONTINUOUS
 62
    47
 10
32.158098
 20
-2.18766
 11
7.8581
 21
-2.18766
  0
LINE
  8
型材断面
  6
CONTINUOUS
 10
7.858102
 20
11.31234
 11
7.858102
 21
-0.68766
  0
LINE
  8
型材断面
  6
DOT
 10
7.8581
 20
-0.68766
 11
4.858102
 21
-0.68766
  0
LINE
  8
型材断面
  6
DOT
 10
7.8581
 20
7.31234
 11
4.858102
 21
7.31234
  0
LINE
  8
型材断面
  6
DOT
 10
5.233102
 20
7.31234
 11
5.233102
 21
-0.68766
  0
LINE
  8
型材断面
  6
DOT
 10
5.608102
 20
7.31234
 11
5.608102
 21
-0.68766
  0
LINE
  8
型材断面
  6
DOT
 10
5.983102
 20
7.31234
 11
5.983102
 21
-0.68766
  0
LINE
  8
型材断面
  6
DOT
 10
7.483102
 20
7.31234
 11
7.483102
 21
-0.68766
  0
LINE
  8
型材断面
  6
DOT
 10
7.108102
 20
7.31234
 11
7.108102
 21
-0.68766
  0
LINE
  8
型材断面
  6
DOT
 10
6.733102
 20
7.31234
 11
6.733102
 21
-0.68766
  0
LINE
  8
型材断面
  6
CONTINUOUS
 10
7.8581
 20
7.31234
 11
15.858102
 21
7.31234
  0
LINE
  8
型材断面
  6
CONTINUOUS
 10
15.858102
 20
-0.68766
 11
15.858102
 21
7.31234
  0
INSERT
  2
*HAT_0002
  8
型材断面
 10
0.0
 20
0.0
  0
ARC
  8
型材断面
  6
CONTINUOUS
 10
6.3581
 20
-0.68766
 40
1.828755
 50
270.0
 51
304.89216
  0
ARC
  8
型材断面
  6
CONTINUOUS
 10
6.3581
 20
-0.68766
 40
2.14862
 50
270.0
 51
315.723433
  0
LINE
  8
ガラス
  6
CONTINUOUS
 10
93.580207
 20
14.112342
 11
19.358095
 21
14.112342
  0
LINE
  8
ガラス
  6
CONTINUOUS
 10
19.358095
 20
14.112342
 11
19.358095
 21
7.312342
  0
LINE
  8
ガラス
  6
CONTINUOUS
 10
93.580207
 20
7.312342
 11
19.358095
 21
7.312342
  0
LINE
  8
ガラス
  6
CONTINUOUS
 10
93.580207
 20
13.612342
 11
19.358095
 21
13.612342
  0
LINE
  8
ガラス
  6
CONTINUOUS
 10
93.580207
 20
7.812342
 11
19.358095
 21
7.812342
  0
INSERT
  2
*GRP_0028
  8
ガラス
  6
CONTINUOUS
 10
0.0
 20
0.0
  0
INSERT
  2
*GRP_0029
  8
ガラス
  6
CONTINUOUS
 10
0.0
 20
0.0
  0
INSERT
  2
*GRP_0030
  8
ガラス
  6
CONTINUOUS
 10
0.0
 20
0.0
  0
INSERT
  2
*GRP_0026
  8
ゴム等
  6
CONTINUOUS
 10
0.0
 20
0.0
  0
INSERT
  2
*GRP_0017
  8
ボルト／ビス
  6
CONTINUOUS
 10
0.0
 20
0.0
  0
INSERT
  2
*GRP_0025
  8
ボルト／ビス
  6
CONTINUOUS
 10
0.0
 20
0.0
  0
TEXT
  7
TextStyle03
  8
文字
  6
CONTINUOUS
 10
55.875
 20
82.375
  1
ドーム呼称寸法
 40
4.0
 72
     5
 11
86.875
 21
82.375
  0
TEXT
  7
TextStyle03
  8
文字
  6
CONTINUOUS
 10
-43.525
 20
102.3
  1
アクリル乳白色
 40
4.0
 72
     5
 11
-12.525
 21
102.3
  0
TEXT
  7
TextStyle03
  8
文字
  6
CONTINUOUS
 10
-43.525
 20
97.8
  1
ポリカ　ｸﾘｱ片面マット　
 40
4.0
 72
     5
 11
7.725
 21
97.8
  0
TEXT
  7
TextStyle03
  8
文字
  6
CONTINUOUS
 10
-43.525
 20
93.3
  1
を標準とする
 40
4.0
 72
     5
 11
-17.025
 21
93.3
  0
TEXT
  7
TextStyle03
  8
文字
  6
CONTINUOUS
 10
-98.05
 20
27.2
  1
TKR-1702
 40
4.0
 72
     5
 11
-80.3
 21
27.2
  0
TEXT
  7
TextStyle03
  8
文字
  6
CONTINUOUS
 10
-8.65
 20
-52.375
  1
St-2.3t
 40
4.0
 72
     5
 11
6.85
 21
-52.375
  0
TEXT
  7
TextStyle03
  8
文字
  6
CONTINUOUS
 10
68.65
 20
-23.325
  1
工場Ｗ．Ｄ＋工場シーリング
 40
4.0
 72
     5
 11
126.65
 21
-23.325
  0
TEXT
  7
TextStyle03
  8
文字
  6
CONTINUOUS
 10
-45.75
 20
-2.975
  1
φ8排水穴
 40
4.0
 72
     5
 11
-26.0
 21
-2.975
  0
TEXT
  7
TextStyle03
  8
文字
  6
CONTINUOUS
 10
-45.75
 20
-7.475
  1
裏バッフル付
 40
4.0
 72
     5
 11
-19.25
 21
-7.475
  0
TEXT
  7
TextStyle03
  8
文字
  6
CONTINUOUS
 10
44.925
 20
103.0
  1
ＮＳコード：ＮＳＫＳ
 40
5.0
 72
     5
 11
100.55
 21
103.0
  0
TEXT
  7
TextStyle03
  8
文字
  6
CONTINUOUS
 10
68.875
 20
-16.125
  1
TKR-1204S
 40
4.0
 72
     5
 11
88.875
 21
-16.125
  0
TEXT
  7
TextStyle03
  8
文字
  6
CONTINUOUS
 10
45.65
 20
123.1
  1
シリーズ：ＳＴＤＫ
 40
5.0
 72
     5
 11
95.65
 21
123.1
  0
TEXT
  7
TextStyle03
  8
文字
  6
CONTINUOUS
 10
45.65
 20
117.475
  1
　　　　　（固定）　
 40
5.0
 72
     5
 11
101.275
 21
117.475
  0
TEXT
  7
TextStyle03
  8
文字
  6
CONTINUOUS
 10
45.65
 20
111.85
  1
図面名　：下枠断面詳細図
 40
5.0
 72
     5
 11
112.525
 21
111.85
  0
INSERT
  2
*DIM_0002
  8
寸法
  6
CONTINUOUS
 10
0.0
 20
0.0
  0
INSERT
  2
*DIM_0003
  8
寸法
  6
CONTINUOUS
 10
0.0
 20
0.0
  0
INSERT
  2
*DIM_0004
  8
寸法
  6
CONTINUOUS
 10
0.0
 20
0.0
  0
INSERT
  2
*DIM_0005
  8
寸法
  6
CONTINUOUS
 10
0.0
 20
0.0
  0
INSERT
  2
*DIM_0006
  8
寸法
  6
CONTINUOUS
 10
0.0
 20
0.0
  0
INSERT
  2
*DIM_0007
  8
寸法
  6
CONTINUOUS
 10
0.0
 20
0.0
  0
INSERT
  2
*DIM_0008
  8
寸法
  6
CONTINUOUS
 10
0.0
 20
0.0
  0
INSERT
  2
*DIM_0009
  8
寸法
  6
CONTINUOUS
 10
0.0
 20
0.0
  0
INSERT
  2
*GRP_0010
  8
寸法
  6
CONTINUOUS
 10
0.0
 20
0.0
  0
INSERT
  2
*GRP_0011
  8
寸法
  6
CONTINUOUS
 10
0.0
 20
0.0
  0
INSERT
  2
*DIM_0013
  8
寸法
  6
CONTINUOUS
 10
0.0
 20
0.0
  0
INSERT
  2
*DIM_0014
  8
寸法
  6
CONTINUOUS
 10
0.0
 20
0.0
  0
INSERT
  2
*DIM_0015
  8
寸法
  6
CONTINUOUS
 10
0.0
 20
0.0
  0
INSERT
  2
*GRP_0016
  8
寸法
  6
CONTINUOUS
 10
0.0
 20
0.0
  0
INSERT
  2
*DIM_0018
  8
寸法
  6
CONTINUOUS
 10
0.0
 20
0.0
  0
INSERT
  2
*DIM_0019
  8
寸法
  6
CONTINUOUS
 10
0.0
 20
0.0
  0
INSERT
  2
*DIM_0020
  8
寸法
  6
CONTINUOUS
 10
0.0
 20
0.0
  0
INSERT
  2
*DIM_0021
  8
寸法
  6
CONTINUOUS
 10
0.0
 20
0.0
  0
INSERT
  2
*GRP_0022
  8
寸法
  6
CONTINUOUS
 10
0.0
 20
0.0
  0
INSERT
  2
*GRP_0023
  8
寸法
  6
CONTINUOUS
 10
0.0
 20
0.0
  0
INSERT
  2
*GRP_0024
  8
寸法
  6
CONTINUOUS
 10
0.0
 20
0.0
  0
INSERT
  2
*DIM_0027
  8
寸法
  6
CONTINUOUS
 10
0.0
 20
0.0
  0
ARC
  8
別途部材
  6
CONTINUOUS
 62
    15
 10
-38.219142
 20
9.3064
 40
5.005952
 50
90.001373
 51
158.200992
  0
LINE
  8
別途部材
  6
CONTINUOUS
 62
    15
 10
6.358098
 20
17.315925
 11
-43.6419
 21
17.315925
  0
LINE
  8
別途部材
  6
CONTINUOUS
 62
    15
 10
7.578808
 20
14.31234
 11
-38.209
 21
14.31234
  0
LINE
  8
別途部材
  6
CONTINUOUS
 62
    15
 10
-43.6419
 20
17.315925
 11
-55.64188
 21
-12.684075
  0
LINE
  8
別途部材
  6
CONTINUOUS
 62
    15
 10
-55.64188
 20
-12.684075
 11
-52.40693
 21
-12.684075
  0
LINE
  8
別途部材
  6
CONTINUOUS
 62
    15
 10
-42.86709
 20
11.165543
 11
-52.40693
 21
-12.684075
  0
ARC
  8
別途部材
  6
CONTINUOUS
 62
    15
 10
163.077321
 20
-110.360106
 40
202.14372
 50
109.740561
 51
140.830981
  0
ARC
  8
別途部材
  6
CONTINUOUS
 62
    15
 10
163.077321
 20
-110.360106
 40
199.306313
 50
110.033541
 51
141.278765
  0
LINE
  8
St
  6
CONTINUOUS
 62
    47
 10
-58.34628
 20
-45.18265
 11
-71.84628
 21
-45.18265
  0
INSERT
  2
*GRP_0012
  8
St
  6
CONTINUOUS
 10
0.0
 20
0.0
  0
POLYLINE
  8
St
  6
CONTINUOUS
 66
     1
  0
VERTEX
  8
St
 10
-70.34628
 20
-43.68265
  0
VERTEX
  8
St
 10
-70.34628
 20
-31.286833
  0
VERTEX
  8
St
 10
6.358102
 20
-7.418343
  0
SEQEND
  0
LINE
  8
St
  6
CONTINUOUS
 10
6.358102
 20
-9.827123
 11
-70.34628
 21
-33.695612
  0
ARC
  8
St
  6
CONTINUOUS
 10
-56.84628
 20
-43.68265
 40
0.827642
 50
270.0
 51
360.0
  0
ARC
  8
St
  6
CONTINUOUS
 10
-56.84628
 20
-43.68265
 40
1.5
 50
270.0
 51
360.0
  0
LINE
  8
St
  6
CONTINUOUS
 10
6.358102
 20
-7.418343
 11
6.358102
 21
-43.68265
  0
LINE
  8
St
  6
CONTINUOUS
 10
-70.34628
 20
-43.68265
 11
6.358102
 21
-43.68265
  0
LINE
  8
その他部品等
  6
CONTINUOUS
 10
6.358102
 20
-7.418343
 11
13.34596
 21
-2.18766
  0
INSERT
  2
*HAT_0003
  8
その他部品等
 10
0.0
 20
0.0
  0
ENDSEC
  0
EOF
