  0
SECTION
  2
HEADER
  9
$EXTMIN
 10
-210.0
 20
-148.5
  9
$EXTMAX
 10
210.0
 20
148.5
  9
$PDMODE
 70
    32
  9
$PDSIZE
 40
0.3
  9
$LTSCALE
 40
10.0
  0
ENDSEC
  0
SECTION
  2
TABLES
  0
TABLE
  2
LTYPE
 70
    15
  0
LTYPE
  2
CONTINUOUS
 70
    64
  3
実線
 72
    65
 73
     0
 40
0.0
  0
LTYPE
  2
DASHED
 70
    64
  3
破線A
 72
    65
 73
     2
 40
0.6
 49
0.4
 49
-0.2
  0
LTYPE
  2
DASHEDX2
 70
    64
  3
破線B
 72
    65
 73
     2
 40
1.3
 49
0.9
 49
-0.4
  0
LTYPE
  2
DASHDOT
 70
    64
  3
１点鎖線A
 72
    65
 73
     4
 40
0.5375
 49
0.375
 49
-0.05
 49
0.0625
 49
-0.05
  0
LTYPE
  2
DASHDOTX2
 70
    64
  3
１点鎖線B
 72
    65
 73
     4
 40
1.075
 49
0.75
 49
-0.1
 49
0.125
 49
-0.1
  0
LTYPE
  2
DIVIDE2
 70
    64
  3
２点鎖線A
 72
    65
 73
     6
 40
0.5125
 49
0.3
 49
-0.0375
 49
0.05
 49
-0.0375
 49
0.05
 49
-0.0375
  0
LTYPE
  2
DIVIDE
 70
    64
  3
２点鎖線B
 72
    65
 73
     6
 40
1.05
 49
0.55
 49
-0.1
 49
0.1
 49
-0.1
 49
0.1
 49
-0.1
  0
LTYPE
  2
DOT
 70
    64
  3
点線A
 72
    65
 73
     2
 40
0.1125
 49
0.0625
 49
-0.05
  0
LTYPE
  2
DOTX2
 70
    64
  3
点線B
 72
    65
 73
     2
 40
0.275
 49
0.15
 49
-0.125
  0
LTYPE
  2
CONTINUOUS
 70
    64
  3
実線
 72
    65
 73
     0
 40
0.0
  0
LTYPE
  2
CONTINUOUS
 70
    64
  3
実線
 72
    65
 73
     0
 40
0.0
  0
LTYPE
  2
CONTINUOUS
 70
    64
  3
実線
 72
    65
 73
     0
 40
0.0
  0
LTYPE
  2
CONTINUOUS
 70
    64
  3
実線
 72
    65
 73
     0
 40
0.0
  0
LTYPE
  2
CONTINUOUS
 70
    64
  3
実線
 72
    65
 73
     0
 40
0.0
  0
LTYPE
  2
CONTINUOUS
 70
    64
  3
実線
 72
    65
 73
     0
 40
0.0
  0
ENDTAB
  0
TABLE
  2
LAYER
 70
    34
  0
LAYER
  2
通り芯
 70
     0
 62
    15
  6
CONTINUOUS
  0
LAYER
  2
補助線
 70
     0
 62
    16
  6
DOT
  0
LAYER
  2
躯体
 70
     0
 62
    31
  6
CONTINUOUS
  0
LAYER
  2
型材
 70
     0
 62
    32
  6
CONTINUOUS
  0
LAYER
  2
型材断面
 70
     0
 62
    47
  6
CONTINUOUS
  0
LAYER
  2
ガラス
 70
     0
 62
    48
  6
CONTINUOUS
  0
LAYER
  2
ゴム等
 70
     0
 62
    63
  6
CONTINUOUS
  0
LAYER
  2
ボルト／ビス
 70
     0
 62
    64
  6
CONTINUOUS
  0
LAYER
  2
文字
 70
     0
 62
    79
  6
CONTINUOUS
  0
LAYER
  2
寸法
 70
     0
 62
    80
  6
CONTINUOUS
  0
LAYER
  2
ﾊｯﾁﾝｸﾞ
 70
     0
 62
    95
  6
CONTINUOUS
  0
LAYER
  2
別途部材
 70
     0
 62
    96
  6
CONTINUOUS
  0
LAYER
  2
曲げ物
 70
     0
 62
   111
  6
CONTINUOUS
  0
LAYER
  2
鉄骨等
 70
     0
 62
   112
  6
CONTINUOUS
  0
LAYER
  2
St
 70
     0
 62
   127
  6
CONTINUOUS
  0
LAYER
  2
その他部品等
 70
     0
 62
   128
  6
CONTINUOUS
  0
LAYER
  2
ｶﾞｽｹｯﾄ
 70
     0
 62
   143
  6
CONTINUOUS
  0
LAYER
  2
ｽｹｯﾁ
 70
     0
 62
    14
  6
CONTINUOUS
  0
LAYER
  2
0
 70
     0
 62
    17
  6
CONTINUOUS
  0
LAYER
  2
1
 70
     0
 62
    30
  6
CONTINUOUS
  0
LAYER
  2
4
 70
     0
 62
    33
  6
CONTINUOUS
  0
LAYER
  2
ﾚｲﾔ3
 70
     0
 62
    46
  6
CONTINUOUS
  0
LAYER
  2
外形線
 70
     0
 62
    49
  6
CONTINUOUS
  0
LAYER
  2
部品
 70
     0
 62
    14
  6
CONTINUOUS
  0
LAYER
  2
サッシ芯
 70
     0
 62
    17
  6
DASHDOTX2
  0
LAYER
  2
寸法線
 70
     0
 62
    62
  6
CONTINUOUS
  0
LAYER
  2
姿図外形線
 70
     0
 62
    65
  6
CONTINUOUS
  0
LAYER
  2
姿補助線
 70
     0
 62
    30
  6
CONTINUOUS
  0
LAYER
  2
透視線
 70
     0
 62
    78
  6
DOT
  0
LAYER
  2
用紙
 70
     0
 62
    81
  6
CONTINUOUS
  0
LAYER
  2
実線図枠
 70
     0
 62
    94
  6
CONTINUOUS
  0
LAYER
  2
補助図枠
 70
     0
 62
    97
  6
CONTINUOUS
  0
LAYER
  2
建具記号
 70
     0
 62
   110
  6
CONTINUOUS
  0
LAYER
  2
補助文字
 70
     0
 62
   113
  6
CONTINUOUS
  0
ENDTAB
  0
TABLE
  2
STYLE
 70
    10
  0
STYLE
  2
STANDARD
 70
     0
 40
1.0
 41
1.0
 42
1.0
 50
0.0
 71
     0
  3
TXT
  4
BIGFONT
  0
STYLE
  2
TATE
 70
     4
 40
1.0
 41
1.0
 42
1.0
 50
0.0
 71
     0
  3
TXT
  4
BIGFONT
  0
STYLE
  2
TextStyle03
 70
     0
 40
1.0
 41
1.0
 42
1.0
 50
0.0
 71
     0
  3
MONOTXT
  4
BIGFONT
  0
STYLE
  2
TextStyle04
 70
     0
 40
1.0
 41
1.0
 42
1.0
 50
0.0
 71
     0
  3
MONOTXT
  4
BIGFONT
  0
STYLE
  2
TextStyle05
 70
     0
 40
1.0
 41
1.0
 42
1.0
 50
0.0
 71
     0
  3
MONOTXT
  4
BIGFONT
  0
STYLE
  2
TextStyle06
 70
     0
 40
1.0
 41
1.0
 42
1.0
 50
0.0
 71
     0
  3
MONOTXT
  4
BIGFONT
  0
STYLE
  2
TextStyle07
 70
     0
 40
1.0
 41
1.0
 42
1.0
 50
0.0
 71
     0
  3
MONOTXT
  4
BIGFONT
  0
STYLE
  2
TextStyle08
 70
     0
 40
1.0
 41
1.0
 42
1.0
 50
0.0
 71
     0
  3
MONOTXT
  4
BIGFONT
  0
STYLE
  2
TextStyle09
 70
     0
 40
1.0
 41
1.0
 42
1.0
 50
0.0
 71
     0
  3
MONOTXT
  4
BIGFONT
  0
STYLE
  2
TextStyle10
 70
     0
 40
1.0
 41
1.0
 42
1.0
 50
0.0
 71
     0
  3
MONOTXT
  4
BIGFONT
  0
ENDTAB
  0
ENDSEC
  0
SECTION
  2
BLOCKS
  0
BLOCK
  2
*GRP_0001
 70
    65
 10
0.0
 20
0.0
  0
LINE
  8
型材断面
  6
CONTINUOUS
 10
195.0
 20
133.5
 11
195.0
 21
-133.5
  0
LINE
  8
型材断面
  6
CONTINUOUS
 10
195.0
 20
-133.5
 11
-185.0
 21
-133.5
  0
LINE
  8
型材断面
  6
CONTINUOUS
 10
-185.0
 20
-133.5
 11
-185.0
 21
133.5
  0
LINE
  8
型材断面
  6
CONTINUOUS
 10
195.0
 20
133.5
 11
-185.0
 21
133.5
  0
LINE
  8
型材断面
  6
CONTINUOUS
 10
145.0
 20
-133.5
 11
145.0
 21
-118.5
  0
LINE
  8
型材断面
  6
CONTINUOUS
 10
195.0
 20
-118.5
 11
145.0
 21
-118.5
  0
ENDBLK
  0
BLOCK
  2
*DIM_0002
 70
    65
 10
0.0
 20
0.0
  0
LINE
  8
寸法
  6
BYBLOCK
 62
     0
 10
-32.48957
 20
-22.481818
 11
-32.48957
 21
-24.875757
  0
LINE
  8
寸法
  6
BYBLOCK
 62
     0
 10
-112.48957
 20
-24.875757
 11
-32.48957
 21
-24.875757
  0
POINT
  8
寸法
 62
     0
 10
-32.48957
 20
-24.875757
  0
TEXT
  7
TextStyle03
  8
寸法
  6
CONTINUOUS
 62
     0
 10
-84.21875
 20
-24.525
  1
呼称寸法＝2400
 40
3.0
 72
     5
 11
-60.78125
 21
-24.525
  0
ENDBLK
  0
BLOCK
  2
*DIM_0003
 70
    65
 10
0.0
 20
0.0
  0
LINE
  8
寸法
  6
BYBLOCK
 62
     0
 10
15.81096
 20
21.811188
 11
15.81096
 21
17.89452
  0
POINT
  8
寸法
 62
     0
 10
15.81096
 20
21.811188
  0
POINT
  8
寸法
 62
     0
 10
15.81096
 20
17.89452
  0
TEXT
  7
TextStyle03
  8
寸法
  6
CONTINUOUS
 62
     0
 10
15.425
 20
7.3
  1
117.5
 40
3.0
 50
90.0
 72
     5
 11
15.425
 21
15.55
  0
ENDBLK
  0
BLOCK
  2
*DIM_0004
 70
    65
 10
0.0
 20
0.0
  0
LINE
  8
寸法
  6
BYBLOCK
 62
     0
 10
58.001245
 20
14.89452
 11
58.001245
 21
-1.533403
  0
LINE
  8
寸法
  6
BYBLOCK
 62
     0
 10
55.867913
 20
14.89452
 11
55.867913
 21
-1.533403
  0
LINE
  8
寸法
  6
BYBLOCK
 62
     0
 10
58.001245
 20
-1.533403
 11
55.867913
 21
-1.533403
  0
POINT
  8
寸法
 62
     0
 10
58.001245
 20
-1.533403
  0
POINT
  8
寸法
 62
     0
 10
55.867913
 20
-1.533403
  0
TEXT
  7
TextStyle03
  8
寸法
  6
CONTINUOUS
 62
     0
 10
58.70625
 20
-1.175
  1
64
 40
3.0
 72
     5
 11
61.89375
 21
-1.175
  0
ENDBLK
  0
BLOCK
  2
*DIM_0005
 70
    65
 10
0.0
 20
0.0
  0
LINE
  8
寸法
  6
BYBLOCK
 62
     0
 10
-116.406238
 20
-69.22949
 11
-116.406238
 21
-19.064915
  0
LINE
  8
寸法
  6
BYBLOCK
 62
     0
 10
-28.572902
 20
-69.22949
 11
-28.572902
 21
-19.064915
  0
LINE
  8
寸法
  6
BYBLOCK
 62
     0
 10
-116.406238
 20
-19.064915
 11
-28.572902
 21
-19.064915
  0
POINT
  8
寸法
 62
     0
 10
-116.406238
 20
-19.064915
  0
POINT
  8
寸法
 62
     0
 10
-28.572902
 20
-19.064915
  0
TEXT
  7
TextStyle03
  8
寸法
  6
CONTINUOUS
 62
     0
 10
-75.78125
 20
-18.7
  1
2635
 40
3.0
 72
     5
 11
-69.21875
 21
-18.7
  0
ENDBLK
  0
BLOCK
  2
*DIM_0006
 70
    65
 10
0.0
 20
0.0
  0
LINE
  8
寸法
  6
BYBLOCK
 62
     0
 10
-32.48957
 20
-24.875757
 11
-28.572902
 21
-24.875757
  0
POINT
  8
寸法
 62
     0
 10
-32.48957
 20
-24.875757
  0
POINT
  8
寸法
 62
     0
 10
-28.572902
 20
-24.875757
  0
TEXT
  7
TextStyle03
  8
寸法
  6
CONTINUOUS
 62
     0
 10
-26.25
 20
-24.525
  1
117.5
 40
3.0
 72
     5
 11
-18.0
 21
-24.525
  0
ENDBLK
  0
BLOCK
  2
*DIM_0007
 70
    65
 10
0.0
 20
0.0
  0
LINE
  8
寸法
  6
BYBLOCK
 62
     0
 10
-112.48957
 20
-24.875757
 11
-116.406238
 21
-24.875757
  0
POINT
  8
寸法
 62
     0
 10
-112.48957
 20
-24.875757
  0
POINT
  8
寸法
 62
     0
 10
-116.406238
 20
-24.875757
  0
TEXT
  7
TextStyle03
  8
寸法
  6
CONTINUOUS
 62
     0
 10
-127.0
 20
-24.525
  1
117.5
 40
3.0
 72
     5
 11
-118.75
 21
-24.525
  0
ENDBLK
  0
BLOCK
  2
*DIM_0008
 70
    65
 10
0.0
 20
0.0
  0
LINE
  8
寸法
  6
BYBLOCK
 62
     0
 10
-25.572902
 20
-74.362823
 11
-5.69874
 21
-74.362823
  0
LINE
  8
寸法
  6
BYBLOCK
 62
     0
 10
-25.572902
 20
-72.22949
 11
-5.69874
 21
-72.22949
  0
LINE
  8
寸法
  6
BYBLOCK
 62
     0
 10
-5.69874
 20
-74.362823
 11
-5.69874
 21
-72.22949
  0
POINT
  8
寸法
 62
     0
 10
-5.69874
 20
-74.362823
  0
POINT
  8
寸法
 62
     0
 10
-5.69874
 20
-72.22949
  0
TEXT
  7
TextStyle03
  8
寸法
  6
CONTINUOUS
 62
     0
 10
-6.075
 20
-78.26875
  1
64
 40
3.0
 50
90.0
 72
     5
 11
-6.075
 21
-75.08125
  0
ENDBLK
  0
BLOCK
  2
*DIM_0009
 70
    65
 10
0.0
 20
0.0
  0
LINE
  8
寸法
  6
BYBLOCK
 62
     0
 10
52.867913
 20
17.89452
 11
10.061135
 21
17.89452
  0
LINE
  8
寸法
  6
BYBLOCK
 62
     0
 10
52.867913
 20
55.727855
 11
10.061135
 21
55.727855
  0
LINE
  8
寸法
  6
BYBLOCK
 62
     0
 10
10.061135
 20
17.89452
 11
10.061135
 21
55.727855
  0
POINT
  8
寸法
 62
     0
 10
10.061135
 20
17.89452
  0
POINT
  8
寸法
 62
     0
 10
10.061135
 20
55.727855
  0
TEXT
  7
TextStyle03
  8
寸法
  6
CONTINUOUS
 62
     0
 10
9.675
 20
33.51875
  1
1135
 40
3.0
 50
90.0
 72
     5
 11
9.675
 21
40.08125
  0
ENDBLK
  0
BLOCK
  2
*DIM_0010
 70
    65
 10
0.0
 20
0.0
  0
LINE
  8
寸法
  6
BYBLOCK
 62
     0
 10
15.81096
 20
21.811188
 11
15.81096
 21
51.811188
  0
POINT
  8
寸法
 62
     0
 10
15.81096
 20
21.811188
  0
POINT
  8
寸法
 62
     0
 10
15.81096
 20
51.811188
  0
TEXT
  7
TextStyle03
  8
寸法
  6
CONTINUOUS
 62
     0
 10
15.425
 20
25.925
  1
呼称寸法＝900
 40
3.0
 50
90.0
 72
     5
 11
15.425
 21
47.675
  0
ENDBLK
  0
BLOCK
  2
*DIM_0011
 70
    65
 10
0.0
 20
0.0
  0
LINE
  8
寸法
  6
BYBLOCK
 62
     0
 10
15.81096
 20
51.811188
 11
15.81096
 21
55.727858
  0
POINT
  8
寸法
 62
     0
 10
15.81096
 20
51.811188
  0
POINT
  8
寸法
 62
     0
 10
15.81096
 20
55.727858
  0
TEXT
  7
TextStyle03
  8
寸法
  6
CONTINUOUS
 62
     0
 10
15.425
 20
58.075
  1
117.5
 40
3.0
 50
90.0
 72
     5
 11
15.425
 21
66.325
  0
ENDBLK
  0
BLOCK
  2
*DIM_0012
 70
    65
 10
0.0
 20
0.0
  0
LINE
  8
寸法
  6
BYBLOCK
 62
     0
 10
36.833515
 20
33.811188
 11
36.833515
 21
-1.533403
  0
LINE
  8
寸法
  6
BYBLOCK
 62
     0
 10
55.867913
 20
-1.533403
 11
36.833515
 21
-1.533403
  0
POINT
  8
寸法
 62
     0
 10
55.867913
 20
-1.533403
  0
POINT
  8
寸法
 62
     0
 10
36.833515
 20
-1.533403
  0
TEXT
  7
TextStyle03
  8
寸法
  6
CONTINUOUS
 62
     0
 10
43.9125
 20
-1.175
  1
571
 40
3.0
 72
     5
 11
48.7875
 21
-1.175
  0
ENDBLK
  0
BLOCK
  2
*DIM_0013
 70
    65
 10
0.0
 20
0.0
  0
LINE
  8
寸法
  6
BYBLOCK
 62
     0
 10
-105.822902
 20
59.18929
 11
-105.822902
 21
70.312773
  0
LINE
  8
寸法
  6
BYBLOCK
 62
     0
 10
-89.156238
 20
59.18929
 11
-89.156238
 21
70.312773
  0
LINE
  8
寸法
  6
BYBLOCK
 62
     0
 10
-105.822902
 20
70.312773
 11
-89.156238
 21
70.312773
  0
POINT
  8
寸法
 62
     0
 10
-105.822902
 20
70.312773
  0
POINT
  8
寸法
 62
     0
 10
-89.156238
 20
70.312773
  0
TEXT
  7
TextStyle03
  8
寸法
  6
CONTINUOUS
 62
     0
 10
-99.9625
 20
70.675
  1
500
 40
3.0
 72
     5
 11
-95.0875
 21
70.675
  0
ENDBLK
  0
BLOCK
  2
*DIM_0014
 70
    65
 10
0.0
 20
0.0
  0
LINE
  8
寸法
  6
BYBLOCK
 62
     0
 10
-72.48957
 20
59.18929
 11
-72.48957
 21
70.312773
  0
LINE
  8
寸法
  6
BYBLOCK
 62
     0
 10
-89.156238
 20
70.312773
 11
-72.48957
 21
70.312773
  0
POINT
  8
寸法
 62
     0
 10
-72.48957
 20
70.312773
  0
TEXT
  7
TextStyle03
  8
寸法
  6
CONTINUOUS
 62
     0
 10
-83.2875
 20
70.675
  1
500
 40
3.0
 72
     5
 11
-78.4125
 21
70.675
  0
ENDBLK
  0
BLOCK
  2
*DIM_0015
 70
    65
 10
0.0
 20
0.0
  0
LINE
  8
寸法
  6
BYBLOCK
 62
     0
 10
-55.822902
 20
59.18929
 11
-55.822902
 21
70.312773
  0
LINE
  8
寸法
  6
BYBLOCK
 62
     0
 10
-72.48957
 20
70.312773
 11
-55.822902
 21
70.312773
  0
POINT
  8
寸法
 62
     0
 10
-55.822902
 20
70.312773
  0
TEXT
  7
TextStyle03
  8
寸法
  6
CONTINUOUS
 62
     0
 10
-66.6125
 20
70.675
  1
500
 40
3.0
 72
     5
 11
-61.7375
 21
70.675
  0
ENDBLK
  0
BLOCK
  2
*DIM_0016
 70
    65
 10
0.0
 20
0.0
  0
LINE
  8
寸法
  6
BYBLOCK
 62
     0
 10
-39.156238
 20
59.18929
 11
-39.156238
 21
70.312773
  0
LINE
  8
寸法
  6
BYBLOCK
 62
     0
 10
-55.822902
 20
70.312773
 11
-39.156238
 21
70.312773
  0
POINT
  8
寸法
 62
     0
 10
-39.156238
 20
70.312773
  0
TEXT
  7
TextStyle03
  8
寸法
  6
CONTINUOUS
 62
     0
 10
-49.9625
 20
70.675
  1
500
 40
3.0
 72
     5
 11
-45.0875
 21
70.675
  0
ENDBLK
  0
BLOCK
  2
*DIM_0017
 70
    65
 10
0.0
 20
0.0
  0
LINE
  8
寸法
  6
BYBLOCK
 62
     0
 10
-97.48957
 20
16.611188
 11
-97.48957
 21
7.234425
  0
LINE
  8
寸法
  6
BYBLOCK
 62
     0
 10
-47.48957
 20
16.611188
 11
-47.48957
 21
7.234425
  0
LINE
  8
寸法
  6
BYBLOCK
 62
     0
 10
-97.48957
 20
7.234425
 11
-47.48957
 21
7.234425
  0
POINT
  8
寸法
 62
     0
 10
-97.48957
 20
7.234425
  0
POINT
  8
寸法
 62
     0
 10
-47.48957
 20
7.234425
  0
TEXT
  7
TextStyle03
  8
寸法
  6
CONTINUOUS
 62
     0
 10
-75.80625
 20
7.6
  1
1500
 40
3.0
 72
     5
 11
-69.24375
 21
7.6
  0
ENDBLK
  0
BLOCK
  2
*DIM_0018
 70
    65
 10
0.0
 20
0.0
  0
LINE
  8
寸法
  6
BYBLOCK
 62
     0
 10
-44.489573
 20
-53.195093
 11
-5.69874
 21
-53.195093
  0
LINE
  8
寸法
  6
BYBLOCK
 62
     0
 10
-5.69874
 20
-72.22949
 11
-5.69874
 21
-53.195093
  0
POINT
  8
寸法
 62
     0
 10
-5.69874
 20
-72.22949
  0
POINT
  8
寸法
 62
     0
 10
-5.69874
 20
-53.195093
  0
TEXT
  7
TextStyle03
  8
寸法
  6
CONTINUOUS
 62
     0
 10
-6.075
 20
-65.1625
  1
571
 40
3.0
 50
90.0
 72
     5
 11
-6.075
 21
-60.2875
  0
ENDBLK
  0
BLOCK
  2
*DIM_0019
 70
    65
 10
0.0
 20
0.0
  0
LINE
  8
寸法
  6
BYBLOCK
 62
     0
 10
106.942905
 20
40.59949
 11
106.942905
 21
34.591278
  0
LINE
  8
寸法
  6
BYBLOCK
 62
     0
 10
147.046012
 20
40.59949
 11
147.046012
 21
34.591278
  0
LINE
  8
寸法
  6
BYBLOCK
 62
     0
 10
106.942905
 20
34.591278
 11
147.046012
 21
34.591278
  0
POINT
  8
寸法
 62
     0
 10
106.942905
 20
34.591278
  0
POINT
  8
寸法
 62
     0
 10
147.046012
 20
34.591278
  0
TEXT
  7
TextStyle03
  8
寸法
  6
CONTINUOUS
 62
     0
 10
122.00625
 20
34.95
  1
1203.1
 40
3.0
 72
     5
 11
131.94375
 21
34.95
  0
ENDBLK
  0
BLOCK
  2
*DIM_0020
 70
    65
 10
0.0
 20
0.0
  0
LINE
  8
寸法
  6
BYBLOCK
 62
     0
 10
123.144273
 20
69.51159
 11
123.144273
 21
73.234878
  0
LINE
  8
寸法
  6
BYBLOCK
 62
     0
 10
147.046012
 20
69.51159
 11
147.046012
 21
73.234878
  0
LINE
  8
寸法
  6
BYBLOCK
 62
     0
 10
123.144273
 20
73.234878
 11
147.046012
 21
73.234878
  0
POINT
  8
寸法
 62
     0
 10
123.144273
 20
73.234878
  0
POINT
  8
寸法
 62
     0
 10
147.046012
 20
73.234878
  0
TEXT
  7
TextStyle03
  8
寸法
  6
CONTINUOUS
 62
     0
 10
130.95
 20
73.6
  1
717.1
 40
3.0
 72
     5
 11
139.2
 21
73.6
  0
ENDBLK
  0
BLOCK
  2
*DIM_0021
 70
    65
 10
0.0
 20
0.0
  0
LINE
  8
寸法
  6
BYBLOCK
 62
     0
 10
103.942905
 20
43.59949
 11
96.863605
 21
43.59949
  0
LINE
  8
寸法
  6
BYBLOCK
 62
     0
 10
120.144273
 20
66.51159
 11
96.863605
 21
66.51159
  0
LINE
  8
寸法
  6
BYBLOCK
 62
     0
 10
96.863605
 20
43.59949
 11
96.863605
 21
66.51159
  0
POINT
  8
寸法
 62
     0
 10
96.863605
 20
43.59949
  0
POINT
  8
寸法
 62
     0
 10
96.863605
 20
66.51159
  0
TEXT
  7
TextStyle03
  8
寸法
  6
CONTINUOUS
 62
     0
 10
96.475
 20
50.925
  1
687.4
 40
3.0
 50
90.0
 72
     5
 11
96.475
 21
59.175
  0
ENDBLK
  0
BLOCK
  2
*DIM_0022
 70
    65
 10
0.0
 20
0.0
  0
ARC
  8
寸法
  6
BYBLOCK
 62
     0
 10
106.942905
 20
43.59949
 40
12.309226
 50
0.0
 51
54.735498
  0
POINT
  8
寸法
 62
     0
 10
114.04966
 20
53.649918
  0
POINT
  8
寸法
 62
     0
 10
119.25213
 20
43.59949
  0
TEXT
  7
TextStyle03
  8
寸法
  6
CONTINUOUS
 62
     0
 10
115.145707
 20
55.322225
  1
54.7355
 40
3.0
 50
297.37
 72
     5
 11
120.490125
 21
44.998571
  0
TEXT
  7
TextStyle03
  8
寸法
  6
CONTINUOUS
 62
     0
 10
120.573115
 20
44.85144
  1
ﾟ
 40
3.0
 50
297.37
 41
0.5625
  0
ENDBLK
  0
BLOCK
  2
*DIM_0023
 70
    65
 10
0.0
 20
0.0
  0
LINE
  8
寸法
  6
BYBLOCK
 62
     0
 10
111.141343
 20
-10.802812
 11
111.141343
 21
-17.315253
  0
LINE
  8
寸法
  6
BYBLOCK
 62
     0
 10
142.847573
 20
-10.802812
 11
142.847573
 21
-17.315253
  0
LINE
  8
寸法
  6
BYBLOCK
 62
     0
 10
111.141343
 20
-17.315253
 11
142.847573
 21
-17.315253
  0
POINT
  8
寸法
 62
     0
 10
111.141343
 20
-17.315253
  0
POINT
  8
寸法
 62
     0
 10
142.847573
 20
-17.315253
  0
TEXT
  7
TextStyle03
  8
寸法
  6
CONTINUOUS
 62
     0
 10
122.85
 20
-16.95
  1
951.2
 40
3.0
 72
     5
 11
131.1
 21
-16.95
  0
ENDBLK
  0
BLOCK
  2
*DIM_0024
 70
    65
 10
0.0
 20
0.0
  0
LINE
  8
寸法
  6
BYBLOCK
 62
     0
 10
108.141343
 20
-7.802812
 11
101.614777
 21
-7.802812
  0
LINE
  8
寸法
  6
BYBLOCK
 62
     0
 10
123.994457
 20
14.61679
 11
101.614777
 21
14.61679
  0
LINE
  8
寸法
  6
BYBLOCK
 62
     0
 10
101.614777
 20
-7.802812
 11
101.614777
 21
14.61679
  0
POINT
  8
寸法
 62
     0
 10
101.614777
 20
-7.802812
  0
POINT
  8
寸法
 62
     0
 10
101.614777
 20
14.61679
  0
TEXT
  7
TextStyle03
  8
寸法
  6
CONTINUOUS
 62
     0
 10
101.225
 20
-0.725
  1
672.6
 40
3.0
 50
90.0
 72
     5
 11
101.225
 21
7.525
  0
ENDBLK
  0
BLOCK
  2
*DIM_0025
 70
    65
 10
0.0
 20
0.0
  0
ARC
  8
寸法
  6
BYBLOCK
 62
     0
 10
111.141343
 20
-7.802812
 40
8.507263
 50
0.0
 51
54.735501
  0
POINT
  8
寸法
 62
     0
 10
116.053025
 20
-0.85667
  0
POINT
  8
寸法
 62
     0
 10
119.648605
 20
-7.802812
  0
TEXT
  7
TextStyle03
  8
寸法
  6
CONTINUOUS
 62
     0
 10
115.970707
 20
2.172225
  1
54.7355
 40
3.0
 50
297.37
 72
     5
 11
121.315125
 21
-8.151429
  0
TEXT
  7
TextStyle03
  8
寸法
  6
CONTINUOUS
 62
     0
 10
121.373115
 20
-8.29856
  1
ﾟ
 40
3.0
 50
297.37
 41
0.5625
  0
ENDBLK
  0
BLOCK
  2
*DIM_0026
 70
    65
 10
0.0
 20
0.0
  0
ARC
  8
寸法
  6
BYBLOCK
 62
     0
 10
142.847572
 20
-7.802812
 40
8.507263
 50
125.264499
 51
180.0
  0
POINT
  8
寸法
 62
     0
 10
137.93589
 20
-0.85667
  0
POINT
  8
寸法
 62
     0
 10
134.34031
 20
-7.802812
  0
TEXT
  7
TextStyle03
  8
寸法
  6
CONTINUOUS
 62
     0
 10
131.884875
 20
-9.626429
  1
54.7355
 40
3.0
 50
62.63
 72
     5
 11
137.229293
 21
0.697225
  0
TEXT
  7
TextStyle03
  8
寸法
  6
CONTINUOUS
 62
     0
 10
137.312283
 20
0.844356
  1
ﾟ
 40
3.0
 50
62.63
 41
0.5625
  0
ENDBLK
  0
BLOCK
  2
*DIM_0027
 70
    65
 10
0.0
 20
0.0
  0
LINE
  8
寸法
  6
BYBLOCK
 62
     0
 10
-119.40623
 20
45.14452
 11
-131.555573
 21
45.14452
  0
LINE
  8
寸法
  6
BYBLOCK
 62
     0
 10
-119.40623
 20
28.477855
 11
-131.555573
 21
28.477855
  0
LINE
  8
寸法
  6
BYBLOCK
 62
     0
 10
-131.555573
 20
45.14452
 11
-131.555573
 21
28.477855
  0
POINT
  8
寸法
 62
     0
 10
-131.555573
 20
45.14452
  0
POINT
  8
寸法
 62
     0
 10
-131.555573
 20
28.477855
  0
TEXT
  7
TextStyle03
  8
寸法
  6
CONTINUOUS
 62
     0
 10
-131.95
 20
34.3625
  1
500
 40
3.0
 50
90.0
 72
     5
 11
-131.95
 21
39.2375
  0
ENDBLK
  0
ENDSEC
  0
SECTION
  2
ENTITIES
  0
POLYLINE
  8
通り芯
  6
CONTINUOUS
 66
     1
 70
     1
  0
VERTEX
  8
通り芯
 10
-210.0
 20
-148.5
  0
VERTEX
  8
通り芯
 10
210.0
 20
-148.5
  0
VERTEX
  8
通り芯
 10
210.0
 20
148.5
  0
VERTEX
  8
通り芯
 10
-210.0
 20
148.5
  0
SEQEND
  0
INSERT
  2
*GRP_0001
  8
型材断面
  6
CONTINUOUS
 10
0.0
 20
0.0
  0
LINE
  8
型材断面
  6
CONTINUOUS
 62
    47
 10
55.867913
 20
17.89452
 11
58.001245
 21
17.89452
  0
LINE
  8
型材断面
  6
CONTINUOUS
 10
55.867913
 20
17.89452
 11
55.809048
 21
17.835655
  0
LINE
  8
型材断面
  6
CONTINUOUS
 62
    47
 10
58.001245
 20
18.461188
 11
58.517913
 21
18.461188
  0
LINE
  8
型材断面
  6
DASHDOT
 10
-112.48957
 20
21.811188
 11
58.517913
 21
21.811188
  0
LINE
  8
型材断面
  6
CONTINUOUS
 10
-116.40623
 20
17.89452
 11
-72.48957
 21
17.89452
  0
LINE
  8
型材断面
  6
CONTINUOUS
 10
-110.612103
 20
21.10194
 11
-73.73957
 21
21.10194
  0
LINE
  8
型材断面
  6
CONTINUOUS
 10
-110.564963
 20
21.14908
 11
-73.73957
 21
21.14908
  0
LINE
  8
型材断面
  6
CONTINUOUS
 10
-110.459515
 20
21.254525
 11
-73.73957
 21
21.254525
  0
LINE
  8
型材断面
  6
CONTINUOUS
 10
-110.309515
 20
21.404525
 11
-73.73957
 21
21.404525
  0
LINE
  8
型材断面
  6
CONTINUOUS
 62
    47
 10
-116.406238
 20
-72.22949
 11
-116.406238
 21
-74.362823
  0
LINE
  8
型材断面
  6
CONTINUOUS
 10
-116.406238
 20
-72.22949
 11
-116.465103
 21
-72.170625
  0
LINE
  8
型材断面
  6
CONTINUOUS
 62
    47
 10
-115.83957
 20
-74.362823
 11
-115.83957
 21
-74.87949
  0
LINE
  8
型材断面
  6
CONTINUOUS
 62
    47
 10
-116.406238
 20
-74.362823
 11
-72.48957
 21
-74.362823
  0
LINE
  8
型材断面
  6
CONTINUOUS
 62
    47
 10
-115.83957
 20
-74.87949
 11
-72.48957
 21
-74.87949
  0
LINE
  8
型材断面
  6
CONTINUOUS
 10
-116.406238
 20
-72.22949
 11
-72.48957
 21
-72.22949
  0
LINE
  8
型材断面
  6
DASHDOT
 10
-112.48957
 20
36.811188
 11
58.517913
 21
36.811188
  0
LINE
  8
型材断面
  6
DASHDOT
 10
-112.48957
 20
51.811188
 11
58.517913
 21
51.811188
  0
LINE
  8
型材断面
  6
CONTINUOUS
 10
55.867913
 20
17.89452
 11
55.867913
 21
36.811188
  0
LINE
  8
型材断面
  6
CONTINUOUS
 62
    47
 10
58.001245
 20
17.89452
 11
58.001245
 21
36.811188
  0
LINE
  8
型材断面
  6
CONTINUOUS
 62
    47
 10
58.517913
 20
18.461188
 11
58.517913
 21
36.811188
  0
LINE
  8
型材断面
  6
CONTINUOUS
 10
38.34953
 20
35.271578
 11
38.34953
 21
36.208698
  0
LINE
  8
型材断面
  6
CONTINUOUS
 10
37.747042
 20
36.811188
 11
38.34953
 21
36.208698
  0
LINE
  8
型材断面
  6
CONTINUOUS
 10
38.34953
 20
35.271578
 11
36.809922
 21
36.811188
  0
LINE
  8
型材断面
  6
CONTINUOUS
 10
38.34953
 20
38.350798
 11
38.34953
 21
37.413678
  0
LINE
  8
型材断面
  6
CONTINUOUS
 10
37.747042
 20
36.811188
 11
38.34953
 21
37.413678
  0
LINE
  8
型材断面
  6
CONTINUOUS
 10
38.34953
 20
38.350798
 11
36.809922
 21
36.811188
  0
LINE
  8
型材断面
  6
CONTINUOUS
 10
55.809048
 20
17.835655
 11
36.833515
 21
36.811188
  0
LINE
  8
型材断面
  6
CONTINUOUS
 10
55.867913
 20
18.620478
 11
38.34953
 21
36.138858
  0
LINE
  8
型材断面
  6
CONTINUOUS
 62
    47
 10
55.867913
 20
55.727855
 11
58.001245
 21
55.727855
  0
LINE
  8
型材断面
  6
CONTINUOUS
 10
55.867913
 20
55.727855
 11
55.809048
 21
55.78672
  0
LINE
  8
型材断面
  6
CONTINUOUS
 62
    47
 10
58.001245
 20
55.161188
 11
58.517913
 21
55.161188
  0
LINE
  8
型材断面
  6
CONTINUOUS
 10
55.867913
 20
55.727855
 11
55.867913
 21
36.811188
  0
LINE
  8
型材断面
  6
CONTINUOUS
 62
    47
 10
58.001245
 20
55.727855
 11
58.001245
 21
36.811188
  0
LINE
  8
型材断面
  6
CONTINUOUS
 62
    47
 10
58.517913
 20
55.161188
 11
58.517913
 21
36.811188
  0
LINE
  8
型材断面
  6
CONTINUOUS
 10
55.809048
 20
55.78672
 11
36.833515
 21
36.811188
  0
LINE
  8
型材断面
  6
CONTINUOUS
 10
55.867913
 20
55.001898
 11
38.34953
 21
37.483518
  0
LINE
  8
型材断面
  6
CONTINUOUS
 10
-116.40623
 20
17.89452
 11
-116.40623
 21
36.811188
  0
LINE
  8
型材断面
  6
CONTINUOUS
 10
-113.151673
 20
23.735787
 11
-113.151673
 21
36.811188
  0
LINE
  8
型材断面
  6
CONTINUOUS
 10
-113.198812
 20
23.68865
 11
-113.198812
 21
36.811188
  0
LINE
  8
型材断面
  6
CONTINUOUS
 10
-113.046225
 20
23.841235
 11
-113.046225
 21
36.811188
  0
LINE
  8
型材断面
  6
CONTINUOUS
 10
-112.896225
 20
23.991235
 11
-112.896225
 21
36.811188
  0
LINE
  8
型材断面
  6
CONTINUOUS
 10
-99.02917
 20
35.27158
 11
-99.02917
 21
36.2087
  0
LINE
  8
型材断面
  6
CONTINUOUS
 10
-99.02917
 20
35.27158
 11
-98.09205
 21
35.27158
  0
LINE
  8
型材断面
  6
CONTINUOUS
 10
-98.426682
 20
36.811188
 11
-99.02917
 21
36.2087
  0
LINE
  8
型材断面
  6
CONTINUOUS
 10
-99.02917
 20
35.27158
 11
-97.489563
 21
36.811188
  0
LINE
  8
型材断面
  6
CONTINUOUS
 10
-98.09205
 20
35.27158
 11
-97.747452
 21
35.616178
  0
LINE
  8
型材断面
  6
CONTINUOUS
 10
-97.747452
 20
35.616178
 11
-97.489563
 21
36.811188
  0
LINE
  8
型材断面
  6
CONTINUOUS
 10
-115.615272
 20
17.89452
 11
-98.238213
 21
35.27158
  0
LINE
  8
型材断面
  6
CONTINUOUS
 10
-116.40623
 20
18.68548
 11
-99.02917
 21
36.062537
  0
LINE
  8
型材断面
  6
CONTINUOUS
 10
-116.40623
 20
17.89452
 11
-99.02917
 21
35.27158
  0
LINE
  8
型材断面
  6
CONTINUOUS
 10
-95.728633
 20
35.69614
 11
-72.48957
 21
35.69614
  0
LINE
  8
型材断面
  6
DASHDOT
 10
-72.48957
 20
-74.87949
 11
-72.48957
 21
51.811188
  0
LINE
  8
型材断面
  6
DASHDOT
 10
-112.48957
 20
-74.87949
 11
-112.48957
 21
51.811188
  0
LINE
  8
型材断面
  6
DASHDOT
 10
-32.48957
 20
-74.87949
 11
-32.48957
 21
51.811188
  0
LINE
  8
型材断面
  6
CONTINUOUS
 10
-116.40623
 20
55.727855
 11
-72.48957
 21
55.727855
  0
LINE
  8
型材断面
  6
CONTINUOUS
 10
-110.612103
 20
52.520435
 11
-73.73957
 21
52.520435
  0
LINE
  8
型材断面
  6
CONTINUOUS
 10
-110.564963
 20
52.473295
 11
-73.73957
 21
52.473295
  0
LINE
  8
型材断面
  6
CONTINUOUS
 10
-110.459515
 20
52.36785
 11
-73.73957
 21
52.36785
  0
LINE
  8
型材断面
  6
CONTINUOUS
 10
-110.309515
 20
52.21785
 11
-73.73957
 21
52.21785
  0
LINE
  8
型材断面
  6
CONTINUOUS
 10
-116.40623
 20
55.727855
 11
-116.40623
 21
36.811188
  0
LINE
  8
型材断面
  6
CONTINUOUS
 10
-113.151673
 20
49.886587
 11
-113.151673
 21
36.811188
  0
LINE
  8
型材断面
  6
CONTINUOUS
 10
-113.198812
 20
49.933725
 11
-113.198812
 21
36.811188
  0
LINE
  8
型材断面
  6
CONTINUOUS
 10
-113.046225
 20
49.78114
 11
-113.046225
 21
36.811188
  0
LINE
  8
型材断面
  6
CONTINUOUS
 10
-112.896225
 20
49.63114
 11
-112.896225
 21
36.811188
  0
LINE
  8
型材断面
  6
CONTINUOUS
 10
-99.02917
 20
38.350795
 11
-99.02917
 21
37.413675
  0
LINE
  8
型材断面
  6
CONTINUOUS
 10
-99.02917
 20
38.350795
 11
-98.09205
 21
38.350795
  0
LINE
  8
型材断面
  6
CONTINUOUS
 10
-98.426682
 20
36.811188
 11
-99.02917
 21
37.413675
  0
LINE
  8
型材断面
  6
CONTINUOUS
 10
-99.02917
 20
38.350795
 11
-97.489563
 21
36.811188
  0
LINE
  8
型材断面
  6
CONTINUOUS
 10
-98.09205
 20
38.350795
 11
-97.747452
 21
38.006198
  0
LINE
  8
型材断面
  6
CONTINUOUS
 10
-97.747452
 20
38.006198
 11
-97.489563
 21
36.811188
  0
LINE
  8
型材断面
  6
CONTINUOUS
 10
-115.615272
 20
55.727855
 11
-98.238213
 21
38.350795
  0
LINE
  8
型材断面
  6
CONTINUOUS
 10
-116.40623
 20
54.936895
 11
-99.02917
 21
37.559837
  0
LINE
  8
型材断面
  6
CONTINUOUS
 10
-116.40623
 20
55.727855
 11
-99.02917
 21
38.350795
  0
LINE
  8
型材断面
  6
CONTINUOUS
 10
-95.728633
 20
37.926235
 11
-72.48957
 21
37.926235
  0
LINE
  8
型材断面
  6
CONTINUOUS
 10
-28.57291
 20
55.727855
 11
-72.48957
 21
55.727855
  0
LINE
  8
型材断面
  6
CONTINUOUS
 10
-34.367037
 20
52.520435
 11
-71.23957
 21
52.520435
  0
LINE
  8
型材断面
  6
CONTINUOUS
 10
-34.414178
 20
52.473295
 11
-71.23957
 21
52.473295
  0
LINE
  8
型材断面
  6
CONTINUOUS
 10
-34.519625
 20
52.36785
 11
-71.23957
 21
52.36785
  0
LINE
  8
型材断面
  6
CONTINUOUS
 10
-34.669625
 20
52.21785
 11
-71.23957
 21
52.21785
  0
LINE
  8
型材断面
  6
CONTINUOUS
 10
-28.57291
 20
55.727855
 11
-28.57291
 21
36.811188
  0
LINE
  8
型材断面
  6
CONTINUOUS
 10
-31.827467
 20
49.886587
 11
-31.827467
 21
36.811188
  0
LINE
  8
型材断面
  6
CONTINUOUS
 10
-31.780328
 20
49.933725
 11
-31.780328
 21
36.811188
  0
LINE
  8
型材断面
  6
CONTINUOUS
 10
-31.932915
 20
49.78114
 11
-31.932915
 21
36.811188
  0
LINE
  8
型材断面
  6
CONTINUOUS
 10
-32.082915
 20
49.63114
 11
-32.082915
 21
36.811188
  0
LINE
  8
型材断面
  6
CONTINUOUS
 10
-45.94997
 20
38.350795
 11
-45.94997
 21
37.413675
  0
LINE
  8
型材断面
  6
CONTINUOUS
 10
-45.94997
 20
38.350795
 11
-46.88709
 21
38.350795
  0
LINE
  8
型材断面
  6
CONTINUOUS
 10
-46.552458
 20
36.811188
 11
-45.94997
 21
37.413675
  0
LINE
  8
型材断面
  6
CONTINUOUS
 10
-45.94997
 20
38.350795
 11
-47.489577
 21
36.811188
  0
LINE
  8
型材断面
  6
CONTINUOUS
 10
-46.88709
 20
38.350795
 11
-47.231688
 21
38.006198
  0
LINE
  8
型材断面
  6
CONTINUOUS
 10
-47.231688
 20
38.006198
 11
-47.489577
 21
36.811188
  0
LINE
  8
型材断面
  6
CONTINUOUS
 10
-29.363868
 20
55.727855
 11
-46.740927
 21
38.350795
  0
LINE
  8
型材断面
  6
CONTINUOUS
 10
-28.57291
 20
54.936895
 11
-45.94997
 21
37.559837
  0
LINE
  8
型材断面
  6
CONTINUOUS
 10
-28.57291
 20
55.727855
 11
-45.94997
 21
38.350795
  0
LINE
  8
型材断面
  6
CONTINUOUS
 10
-49.250508
 20
37.926235
 11
-72.48957
 21
37.926235
  0
LINE
  8
型材断面
  6
CONTINUOUS
 10
-28.57291
 20
17.89452
 11
-72.48957
 21
17.89452
  0
LINE
  8
型材断面
  6
CONTINUOUS
 10
-34.367037
 20
21.10194
 11
-71.23957
 21
21.10194
  0
LINE
  8
型材断面
  6
CONTINUOUS
 10
-34.414178
 20
21.14908
 11
-71.23957
 21
21.14908
  0
LINE
  8
型材断面
  6
CONTINUOUS
 10
-34.519625
 20
21.254525
 11
-71.23957
 21
21.254525
  0
LINE
  8
型材断面
  6
CONTINUOUS
 10
-34.669625
 20
21.404525
 11
-71.23957
 21
21.404525
  0
LINE
  8
型材断面
  6
CONTINUOUS
 10
-28.57291
 20
17.89452
 11
-28.57291
 21
36.811188
  0
LINE
  8
型材断面
  6
CONTINUOUS
 10
-31.827467
 20
23.735787
 11
-31.827467
 21
36.811188
  0
LINE
  8
型材断面
  6
CONTINUOUS
 10
-31.780328
 20
23.68865
 11
-31.780328
 21
36.811188
  0
LINE
  8
型材断面
  6
CONTINUOUS
 10
-31.932915
 20
23.841235
 11
-31.932915
 21
36.811188
  0
LINE
  8
型材断面
  6
CONTINUOUS
 10
-32.082915
 20
23.991235
 11
-32.082915
 21
36.811188
  0
LINE
  8
型材断面
  6
CONTINUOUS
 10
-45.94997
 20
35.27158
 11
-45.94997
 21
36.2087
  0
LINE
  8
型材断面
  6
CONTINUOUS
 10
-45.94997
 20
35.27158
 11
-46.88709
 21
35.27158
  0
LINE
  8
型材断面
  6
CONTINUOUS
 10
-46.552458
 20
36.811188
 11
-45.94997
 21
36.2087
  0
LINE
  8
型材断面
  6
CONTINUOUS
 10
-45.94997
 20
35.27158
 11
-47.489577
 21
36.811188
  0
LINE
  8
型材断面
  6
CONTINUOUS
 10
-46.88709
 20
35.27158
 11
-47.231688
 21
35.616178
  0
LINE
  8
型材断面
  6
CONTINUOUS
 10
-47.231688
 20
35.616178
 11
-47.489577
 21
36.811188
  0
LINE
  8
型材断面
  6
CONTINUOUS
 10
-29.363868
 20
17.89452
 11
-46.740927
 21
35.27158
  0
LINE
  8
型材断面
  6
CONTINUOUS
 10
-28.57291
 20
18.68548
 11
-45.94997
 21
36.062537
  0
LINE
  8
型材断面
  6
CONTINUOUS
 10
-28.57291
 20
17.89452
 11
-45.94997
 21
35.27158
  0
LINE
  8
型材断面
  6
CONTINUOUS
 10
-49.250508
 20
35.69614
 11
-72.48957
 21
35.69614
  0
LINE
  8
型材断面
  6
CONTINUOUS
 10
-115.68028
 20
-72.22949
 11
-98.161898
 21
-54.711107
  0
LINE
  8
型材断面
  6
CONTINUOUS
 10
-116.465103
 20
-72.170625
 11
-97.489567
 21
-53.195093
  0
LINE
  8
型材断面
  6
CONTINUOUS
 10
-95.728705
 20
-54.311563
 11
-72.48957
 21
-54.311563
  0
LINE
  8
型材断面
  6
CONTINUOUS
 10
-97.755173
 20
-54.374162
 11
-72.48957
 21
-54.374162
  0
LINE
  8
型材断面
  6
CONTINUOUS
 10
-97.489567
 20
-53.195093
 11
-72.48957
 21
-53.195093
  0
LINE
  8
型材断面
  6
CONTINUOUS
 62
    47
 10
-28.572902
 20
-72.22949
 11
-28.572902
 21
-74.362823
  0
LINE
  8
型材断面
  6
CONTINUOUS
 10
-28.572902
 20
-72.22949
 11
-28.514037
 21
-72.170625
  0
LINE
  8
型材断面
  6
CONTINUOUS
 62
    47
 10
-29.13957
 20
-74.362823
 11
-29.13957
 21
-74.87949
  0
LINE
  8
型材断面
  6
CONTINUOUS
 62
    47
 10
-28.572902
 20
-74.362823
 11
-72.48957
 21
-74.362823
  0
LINE
  8
型材断面
  6
CONTINUOUS
 62
    47
 10
-29.13957
 20
-74.87949
 11
-72.48957
 21
-74.87949
  0
LINE
  8
型材断面
  6
CONTINUOUS
 10
-28.572902
 20
-72.22949
 11
-72.48957
 21
-72.22949
  0
LINE
  8
型材断面
  6
CONTINUOUS
 10
-29.29886
 20
-72.22949
 11
-46.817242
 21
-54.711107
  0
LINE
  8
型材断面
  6
CONTINUOUS
 10
-28.514037
 20
-72.170625
 11
-47.489573
 21
-53.195093
  0
LINE
  8
型材断面
  6
CONTINUOUS
 10
-49.250435
 20
-54.311563
 11
-72.48957
 21
-54.311563
  0
LINE
  8
型材断面
  6
CONTINUOUS
 10
-47.223967
 20
-54.374162
 11
-72.48957
 21
-54.374162
  0
LINE
  8
型材断面
  6
CONTINUOUS
 10
-47.489573
 20
-53.195093
 11
-72.48957
 21
-53.195093
  0
LINE
  8
ゴム等
  6
CONTINUOUS
 10
-73.022902
 20
-71.458882
 11
-73.73957
 21
-71.122985
  0
LINE
  8
ゴム等
  6
CONTINUOUS
 10
54.76141
 20
21.976718
 11
55.097307
 21
20.669552
  0
LINE
  8
ゴム等
  6
CONTINUOUS
 10
55.097307
 20
20.669552
 11
55.149028
 21
20.430372
  0
LINE
  8
ゴム等
  6
CONTINUOUS
 10
55.149028
 20
20.430372
 11
55.867913
 21
18.620478
  0
LINE
  8
ゴム等
  6
CONTINUOUS
 10
-112.35864
 20
19.3554
 11
-113.631297
 21
18.71504
  0
LINE
  8
ゴム等
  6
CONTINUOUS
 10
-113.631297
 20
18.71504
 11
-113.816783
 21
18.599265
  0
LINE
  8
ゴム等
  6
CONTINUOUS
 10
-113.870467
 20
18.589842
 11
-115.615272
 21
17.89452
  0
LINE
  8
ゴム等
  6
CONTINUOUS
 10
-114.94535
 20
21.94211
 11
-115.585713
 21
20.669455
  0
LINE
  8
ゴム等
  6
CONTINUOUS
 10
-115.585713
 20
20.669455
 11
-115.701485
 21
20.48397
  0
LINE
  8
ゴム等
  6
CONTINUOUS
 10
-115.710908
 20
20.430285
 11
-116.40623
 21
18.68548
  0
LINE
  8
ゴム等
  6
CONTINUOUS
 10
-113.631297
 20
18.71504
 11
-72.48957
 21
18.71504
  0
LINE
  8
ゴム等
  6
CONTINUOUS
 10
-113.870467
 20
18.589842
 11
-72.48957
 21
18.589842
  0
LINE
  8
ゴム等
  6
CONTINUOUS
 10
-73.022902
 20
18.71504
 11
-73.73957
 21
19.3554
  0
LINE
  8
ゴム等
  6
CONTINUOUS
 10
-112.35864
 20
19.3554
 11
-73.73957
 21
19.3554
  0
LINE
  8
ゴム等
  6
CONTINUOUS
 10
-112.324038
 20
-71.122985
 11
-113.631203
 21
-71.458882
  0
LINE
  8
ゴム等
  6
CONTINUOUS
 10
-113.631203
 20
-71.458882
 11
-113.870385
 21
-71.510603
  0
LINE
  8
ゴム等
  6
CONTINUOUS
 10
-113.870385
 20
-71.510603
 11
-115.68028
 21
-72.22949
  0
LINE
  8
ゴム等
  6
CONTINUOUS
 10
-113.631203
 20
-71.458882
 11
-72.48957
 21
-71.458882
  0
LINE
  8
ゴム等
  6
CONTINUOUS
 10
-113.870385
 20
-71.510603
 11
-72.48957
 21
-71.510603
  0
LINE
  8
ゴム等
  6
CONTINUOUS
 10
-112.324038
 20
-71.122985
 11
-73.73957
 21
-71.122985
  0
LINE
  8
ゴム等
  6
CONTINUOUS
 10
55.097307
 20
20.669552
 11
55.097307
 21
36.811188
  0
LINE
  8
ゴム等
  6
CONTINUOUS
 10
54.76141
 20
21.976718
 11
54.76141
 21
36.811188
  0
LINE
  8
ゴム等
  6
CONTINUOUS
 10
55.149028
 20
20.430372
 11
55.149028
 21
36.811188
  0
LINE
  8
ゴム等
  6
CONTINUOUS
 10
55.097307
 20
20.669552
 11
38.95567
 21
36.811188
  0
LINE
  8
ゴム等
  6
CONTINUOUS
 10
55.149028
 20
20.430372
 11
38.76821
 21
36.811188
  0
LINE
  8
ゴム等
  6
CONTINUOUS
 10
54.76141
 20
21.976718
 11
39.926937
 21
36.811188
  0
LINE
  8
ゴム等
  6
CONTINUOUS
 10
54.76141
 20
51.645658
 11
55.097307
 21
52.952823
  0
LINE
  8
ゴム等
  6
CONTINUOUS
 10
55.097307
 20
52.952823
 11
55.149028
 21
53.192002
  0
LINE
  8
ゴム等
  6
CONTINUOUS
 10
55.149028
 20
53.192002
 11
55.867913
 21
55.001898
  0
LINE
  8
ゴム等
  6
CONTINUOUS
 10
55.097307
 20
52.952823
 11
55.097307
 21
36.811188
  0
LINE
  8
ゴム等
  6
CONTINUOUS
 10
54.76141
 20
51.645658
 11
54.76141
 21
36.811188
  0
LINE
  8
ゴム等
  6
CONTINUOUS
 10
55.149028
 20
53.192002
 11
55.149028
 21
36.811188
  0
LINE
  8
ゴム等
  6
CONTINUOUS
 10
55.097307
 20
52.952823
 11
38.95567
 21
36.811188
  0
LINE
  8
ゴム等
  6
CONTINUOUS
 10
55.149028
 20
53.192002
 11
38.76821
 21
36.811188
  0
LINE
  8
ゴム等
  6
CONTINUOUS
 10
54.76141
 20
51.645658
 11
39.926937
 21
36.811188
  0
LINE
  8
ゴム等
  6
CONTINUOUS
 10
-115.710908
 20
20.430285
 11
-115.710908
 21
36.811188
  0
LINE
  8
ゴム等
  6
CONTINUOUS
 10
-114.94535
 20
21.94211
 11
-114.94535
 21
36.811188
  0
LINE
  8
ゴム等
  6
CONTINUOUS
 10
-115.585713
 20
20.669455
 11
-115.585713
 21
36.811188
  0
LINE
  8
ゴム等
  6
CONTINUOUS
 10
-97.747452
 20
35.616178
 11
-95.728633
 21
35.616178
  0
LINE
  8
ゴム等
  6
CONTINUOUS
 10
-95.728633
 20
35.616178
 11
-95.728633
 21
36.811188
  0
LINE
  8
ゴム等
  6
CONTINUOUS
 10
-114.94535
 20
21.94211
 11
-100.076272
 21
36.811188
  0
LINE
  8
ゴム等
  6
CONTINUOUS
 10
-115.710908
 20
20.430285
 11
-99.330002
 21
36.811188
  0
LINE
  8
ゴム等
  6
CONTINUOUS
 10
-115.585713
 20
20.669455
 11
-99.443977
 21
36.811188
  0
LINE
  8
ゴム等
  6
CONTINUOUS
 10
-112.35864
 20
19.3554
 11
-96.954717
 21
34.759323
  0
LINE
  8
ゴム等
  6
CONTINUOUS
 10
-113.631297
 20
18.71504
 11
-97.252687
 21
35.093648
  0
LINE
  8
ゴム等
  6
CONTINUOUS
 10
-113.870467
 20
18.589842
 11
-97.306345
 21
35.153962
  0
LINE
  8
ゴム等
  6
CONTINUOUS
 10
-97.252687
 20
35.093648
 11
-73.022902
 21
35.093648
  0
LINE
  8
ゴム等
  6
CONTINUOUS
 10
-97.306345
 20
35.153962
 11
-73.022902
 21
35.153962
  0
LINE
  8
ゴム等
  6
CONTINUOUS
 10
-96.954717
 20
34.759323
 11
-73.73957
 21
34.759323
  0
LINE
  8
ゴム等
  6
CONTINUOUS
 10
-73.73957
 20
19.3554
 11
-73.73957
 21
34.759323
  0
LINE
  8
ゴム等
  6
CONTINUOUS
 10
-73.022902
 20
18.71504
 11
-73.022902
 21
35.69614
  0
LINE
  8
ゴム等
  6
CONTINUOUS
 10
-112.35864
 20
54.266975
 11
-113.631297
 21
54.907335
  0
LINE
  8
ゴム等
  6
CONTINUOUS
 10
-113.631297
 20
54.907335
 11
-113.816783
 21
55.02311
  0
LINE
  8
ゴム等
  6
CONTINUOUS
 10
-113.870467
 20
55.032532
 11
-115.615272
 21
55.727855
  0
LINE
  8
ゴム等
  6
CONTINUOUS
 10
-114.94535
 20
51.680265
 11
-115.585713
 21
52.95292
  0
LINE
  8
ゴム等
  6
CONTINUOUS
 10
-115.585713
 20
52.95292
 11
-115.701485
 21
53.138405
  0
LINE
  8
ゴム等
  6
CONTINUOUS
 10
-115.710908
 20
53.19209
 11
-116.40623
 21
54.936895
  0
LINE
  8
ゴム等
  6
CONTINUOUS
 10
-113.631297
 20
54.907335
 11
-72.48957
 21
54.907335
  0
LINE
  8
ゴム等
  6
CONTINUOUS
 10
-113.870467
 20
55.032532
 11
-72.48957
 21
55.032532
  0
LINE
  8
ゴム等
  6
CONTINUOUS
 10
-73.022902
 20
54.907335
 11
-73.73957
 21
54.266975
  0
LINE
  8
ゴム等
  6
CONTINUOUS
 10
-112.35864
 20
54.266975
 11
-73.73957
 21
54.266975
  0
LINE
  8
ゴム等
  6
CONTINUOUS
 10
-115.710908
 20
53.19209
 11
-115.710908
 21
36.811188
  0
LINE
  8
ゴム等
  6
CONTINUOUS
 10
-114.94535
 20
51.680265
 11
-114.94535
 21
36.811188
  0
LINE
  8
ゴム等
  6
CONTINUOUS
 10
-115.585713
 20
52.95292
 11
-115.585713
 21
36.811188
  0
LINE
  8
ゴム等
  6
CONTINUOUS
 10
-97.747452
 20
38.006198
 11
-95.728633
 21
38.006198
  0
LINE
  8
ゴム等
  6
CONTINUOUS
 10
-95.728633
 20
38.006198
 11
-95.728633
 21
36.811188
  0
LINE
  8
ゴム等
  6
CONTINUOUS
 10
-114.94535
 20
51.680265
 11
-100.076272
 21
36.811188
  0
LINE
  8
ゴム等
  6
CONTINUOUS
 10
-115.710908
 20
53.19209
 11
-99.330002
 21
36.811188
  0
LINE
  8
ゴム等
  6
CONTINUOUS
 10
-115.585713
 20
52.95292
 11
-99.443977
 21
36.811188
  0
LINE
  8
ゴム等
  6
CONTINUOUS
 10
-112.35864
 20
54.266975
 11
-96.954717
 21
38.863053
  0
LINE
  8
ゴム等
  6
CONTINUOUS
 10
-113.631297
 20
54.907335
 11
-97.252687
 21
38.528728
  0
LINE
  8
ゴム等
  6
CONTINUOUS
 10
-113.870467
 20
55.032532
 11
-97.306345
 21
38.468412
  0
LINE
  8
ゴム等
  6
CONTINUOUS
 10
-97.252687
 20
38.528728
 11
-73.022902
 21
38.528728
  0
LINE
  8
ゴム等
  6
CONTINUOUS
 10
-97.306345
 20
38.468412
 11
-73.022902
 21
38.468412
  0
LINE
  8
ゴム等
  6
CONTINUOUS
 10
-96.954717
 20
38.863053
 11
-73.73957
 21
38.863053
  0
LINE
  8
ゴム等
  6
CONTINUOUS
 10
-73.73957
 20
54.266975
 11
-73.73957
 21
38.863053
  0
LINE
  8
ゴム等
  6
CONTINUOUS
 10
-73.022902
 20
54.907335
 11
-73.022902
 21
37.926235
  0
LINE
  8
ゴム等
  6
CONTINUOUS
 10
-32.6205
 20
54.266975
 11
-31.347843
 21
54.907335
  0
LINE
  8
ゴム等
  6
CONTINUOUS
 10
-31.347843
 20
54.907335
 11
-31.162357
 21
55.02311
  0
LINE
  8
ゴム等
  6
CONTINUOUS
 10
-31.108673
 20
55.032532
 11
-29.363868
 21
55.727855
  0
LINE
  8
ゴム等
  6
CONTINUOUS
 10
-30.03379
 20
51.680265
 11
-29.393427
 21
52.95292
  0
LINE
  8
ゴム等
  6
CONTINUOUS
 10
-29.393427
 20
52.95292
 11
-29.277655
 21
53.138405
  0
LINE
  8
ゴム等
  6
CONTINUOUS
 10
-29.268232
 20
53.19209
 11
-28.57291
 21
54.936895
  0
LINE
  8
ゴム等
  6
CONTINUOUS
 10
-31.347843
 20
54.907335
 11
-72.48957
 21
54.907335
  0
LINE
  8
ゴム等
  6
CONTINUOUS
 10
-31.108673
 20
55.032532
 11
-72.48957
 21
55.032532
  0
LINE
  8
ゴム等
  6
CONTINUOUS
 10
-71.956238
 20
54.907335
 11
-71.23957
 21
54.266975
  0
LINE
  8
ゴム等
  6
CONTINUOUS
 10
-32.6205
 20
54.266975
 11
-71.23957
 21
54.266975
  0
LINE
  8
ゴム等
  6
CONTINUOUS
 10
-29.268232
 20
53.19209
 11
-29.268232
 21
36.811188
  0
LINE
  8
ゴム等
  6
CONTINUOUS
 10
-30.03379
 20
51.680265
 11
-30.03379
 21
36.811188
  0
LINE
  8
ゴム等
  6
CONTINUOUS
 10
-29.393427
 20
52.95292
 11
-29.393427
 21
36.811188
  0
LINE
  8
ゴム等
  6
CONTINUOUS
 10
-47.231688
 20
38.006198
 11
-49.250508
 21
38.006198
  0
LINE
  8
ゴム等
  6
CONTINUOUS
 10
-49.250508
 20
38.006198
 11
-49.250508
 21
36.811188
  0
LINE
  8
ゴム等
  6
CONTINUOUS
 10
-30.03379
 20
51.680265
 11
-44.902867
 21
36.811188
  0
LINE
  8
ゴム等
  6
CONTINUOUS
 10
-29.268232
 20
53.19209
 11
-45.649137
 21
36.811188
  0
LINE
  8
ゴム等
  6
CONTINUOUS
 10
-29.393427
 20
52.95292
 11
-45.535163
 21
36.811188
  0
LINE
  8
ゴム等
  6
CONTINUOUS
 10
-32.6205
 20
54.266975
 11
-48.024423
 21
38.863053
  0
LINE
  8
ゴム等
  6
CONTINUOUS
 10
-31.347843
 20
54.907335
 11
-47.726452
 21
38.528728
  0
LINE
  8
ゴム等
  6
CONTINUOUS
 10
-31.108673
 20
55.032532
 11
-47.672795
 21
38.468412
  0
LINE
  8
ゴム等
  6
CONTINUOUS
 10
-47.726452
 20
38.528728
 11
-71.956238
 21
38.528728
  0
LINE
  8
ゴム等
  6
CONTINUOUS
 10
-47.672795
 20
38.468412
 11
-71.956238
 21
38.468412
  0
LINE
  8
ゴム等
  6
CONTINUOUS
 10
-48.024423
 20
38.863053
 11
-71.23957
 21
38.863053
  0
LINE
  8
ゴム等
  6
CONTINUOUS
 10
-71.23957
 20
54.266975
 11
-71.23957
 21
38.863053
  0
LINE
  8
ゴム等
  6
CONTINUOUS
 10
-71.956238
 20
54.907335
 11
-71.956238
 21
37.926235
  0
LINE
  8
ゴム等
  6
CONTINUOUS
 10
-32.6205
 20
19.3554
 11
-31.347843
 21
18.71504
  0
LINE
  8
ゴム等
  6
CONTINUOUS
 10
-31.347843
 20
18.71504
 11
-31.162357
 21
18.599265
  0
LINE
  8
ゴム等
  6
CONTINUOUS
 10
-31.108673
 20
18.589842
 11
-29.363868
 21
17.89452
  0
LINE
  8
ゴム等
  6
CONTINUOUS
 10
-30.03379
 20
21.94211
 11
-29.393427
 21
20.669455
  0
LINE
  8
ゴム等
  6
CONTINUOUS
 10
-29.393427
 20
20.669455
 11
-29.277655
 21
20.48397
  0
LINE
  8
ゴム等
  6
CONTINUOUS
 10
-29.268232
 20
20.430285
 11
-28.57291
 21
18.68548
  0
LINE
  8
ゴム等
  6
CONTINUOUS
 10
-31.347843
 20
18.71504
 11
-72.48957
 21
18.71504
  0
LINE
  8
ゴム等
  6
CONTINUOUS
 10
-31.108673
 20
18.589842
 11
-72.48957
 21
18.589842
  0
LINE
  8
ゴム等
  6
CONTINUOUS
 10
-71.956238
 20
18.71504
 11
-71.23957
 21
19.3554
  0
LINE
  8
ゴム等
  6
CONTINUOUS
 10
-32.6205
 20
19.3554
 11
-71.23957
 21
19.3554
  0
LINE
  8
ゴム等
  6
CONTINUOUS
 10
-29.268232
 20
20.430285
 11
-29.268232
 21
36.811188
  0
LINE
  8
ゴム等
  6
CONTINUOUS
 10
-30.03379
 20
21.94211
 11
-30.03379
 21
36.811188
  0
LINE
  8
ゴム等
  6
CONTINUOUS
 10
-29.393427
 20
20.669455
 11
-29.393427
 21
36.811188
  0
LINE
  8
ゴム等
  6
CONTINUOUS
 10
-47.231688
 20
35.616178
 11
-49.250508
 21
35.616178
  0
LINE
  8
ゴム等
  6
CONTINUOUS
 10
-49.250508
 20
35.616178
 11
-49.250508
 21
36.811188
  0
LINE
  8
ゴム等
  6
CONTINUOUS
 10
-30.03379
 20
21.94211
 11
-44.902867
 21
36.811188
  0
LINE
  8
ゴム等
  6
CONTINUOUS
 10
-29.268232
 20
20.430285
 11
-45.649137
 21
36.811188
  0
LINE
  8
ゴム等
  6
CONTINUOUS
 10
-29.393427
 20
20.669455
 11
-45.535163
 21
36.811188
  0
LINE
  8
ゴム等
  6
CONTINUOUS
 10
-32.6205
 20
19.3554
 11
-48.024423
 21
34.759323
  0
LINE
  8
ゴム等
  6
CONTINUOUS
 10
-31.347843
 20
18.71504
 11
-47.726452
 21
35.093648
  0
LINE
  8
ゴム等
  6
CONTINUOUS
 10
-31.108673
 20
18.589842
 11
-47.672795
 21
35.153962
  0
LINE
  8
ゴム等
  6
CONTINUOUS
 10
-47.726452
 20
35.093648
 11
-71.956238
 21
35.093648
  0
LINE
  8
ゴム等
  6
CONTINUOUS
 10
-47.672795
 20
35.153962
 11
-71.956238
 21
35.153962
  0
LINE
  8
ゴム等
  6
CONTINUOUS
 10
-48.024423
 20
34.759323
 11
-71.23957
 21
34.759323
  0
LINE
  8
ゴム等
  6
CONTINUOUS
 10
-71.23957
 20
19.3554
 11
-71.23957
 21
34.759323
  0
LINE
  8
ゴム等
  6
CONTINUOUS
 10
-71.956238
 20
18.71504
 11
-71.956238
 21
35.69614
  0
LINE
  8
ゴム等
  6
CONTINUOUS
 10
-97.395373
 20
-53.077243
 11
-95.728705
 21
-53.077243
  0
LINE
  8
ゴム等
  6
CONTINUOUS
 10
-95.728705
 20
-53.077243
 11
-95.728705
 21
-54.319392
  0
LINE
  8
ゴム等
  6
CONTINUOUS
 10
-97.653262
 20
-54.272253
 11
-95.728705
 21
-54.272253
  0
LINE
  8
ゴム等
  6
CONTINUOUS
 10
-95.728705
 20
-54.319392
 11
-97.700403
 21
-54.319392
  0
LINE
  8
ゴム等
  6
CONTINUOUS
 10
-99.02924
 20
-54.711107
 11
-98.09212
 21
-54.711107
  0
LINE
  8
ゴム等
  6
CONTINUOUS
 10
-99.02924
 20
-54.711107
 11
-97.395373
 21
-53.077243
  0
LINE
  8
ゴム等
  6
CONTINUOUS
 10
-98.09212
 20
-54.711107
 11
-97.653262
 21
-54.272253
  0
LINE
  8
ゴム等
  6
CONTINUOUS
 10
-97.43625
 20
-55.076405
 11
-97.35997
 21
-55.187585
  0
LINE
  8
ゴム等
  6
CONTINUOUS
 10
-97.35997
 20
-55.187585
 11
-97.032593
 21
-55.831477
  0
LINE
  8
ゴム等
  6
CONTINUOUS
 10
-97.43625
 20
-55.076405
 11
-97.800127
 21
-54.419117
  0
LINE
  8
ゴム等
  6
CONTINUOUS
 10
-113.870385
 20
-71.510603
 11
-97.436225
 21
-55.076443
  0
LINE
  8
ゴム等
  6
CONTINUOUS
 10
-113.631203
 20
-71.458882
 11
-97.359945
 21
-55.187622
  0
LINE
  8
ゴム等
  6
CONTINUOUS
 10
-112.324038
 20
-71.122985
 11
-97.032572
 21
-55.83152
  0
LINE
  8
ゴム等
  6
CONTINUOUS
 10
-97.35997
 20
-55.187585
 11
-73.022902
 21
-55.187585
  0
LINE
  8
ゴム等
  6
CONTINUOUS
 10
-97.43625
 20
-55.076405
 11
-73.022902
 21
-55.076405
  0
LINE
  8
ゴム等
  6
CONTINUOUS
 10
-97.032593
 20
-55.831477
 11
-73.73957
 21
-55.831477
  0
LINE
  8
ゴム等
  6
CONTINUOUS
 10
-73.73957
 20
-71.122985
 11
-73.73957
 21
-55.831477
  0
LINE
  8
ゴム等
  6
CONTINUOUS
 10
-73.022902
 20
-71.458882
 11
-73.022902
 21
-54.374162
  0
LINE
  8
ゴム等
  6
CONTINUOUS
 10
-71.956238
 20
-71.458882
 11
-71.23957
 21
-71.122985
  0
LINE
  8
ゴム等
  6
CONTINUOUS
 10
-32.655102
 20
-71.122985
 11
-31.347937
 21
-71.458882
  0
LINE
  8
ゴム等
  6
CONTINUOUS
 10
-31.347937
 20
-71.458882
 11
-31.108755
 21
-71.510603
  0
LINE
  8
ゴム等
  6
CONTINUOUS
 10
-31.108755
 20
-71.510603
 11
-29.29886
 21
-72.22949
  0
LINE
  8
ゴム等
  6
CONTINUOUS
 10
-31.347937
 20
-71.458882
 11
-72.48957
 21
-71.458882
  0
LINE
  8
ゴム等
  6
CONTINUOUS
 10
-31.108755
 20
-71.510603
 11
-72.48957
 21
-71.510603
  0
LINE
  8
ゴム等
  6
CONTINUOUS
 10
-32.655102
 20
-71.122985
 11
-71.23957
 21
-71.122985
  0
LINE
  8
ゴム等
  6
CONTINUOUS
 10
-47.583767
 20
-53.077243
 11
-49.250435
 21
-53.077243
  0
LINE
  8
ゴム等
  6
CONTINUOUS
 10
-49.250435
 20
-53.077243
 11
-49.250435
 21
-54.319392
  0
LINE
  8
ゴム等
  6
CONTINUOUS
 10
-47.325878
 20
-54.272253
 11
-49.250435
 21
-54.272253
  0
LINE
  8
ゴム等
  6
CONTINUOUS
 10
-49.250435
 20
-54.319392
 11
-47.278737
 21
-54.319392
  0
LINE
  8
ゴム等
  6
CONTINUOUS
 10
-45.9499
 20
-54.711107
 11
-46.88702
 21
-54.711107
  0
LINE
  8
ゴム等
  6
CONTINUOUS
 10
-45.9499
 20
-54.711107
 11
-47.583767
 21
-53.077243
  0
LINE
  8
ゴム等
  6
CONTINUOUS
 10
-46.88702
 20
-54.711107
 11
-47.325878
 21
-54.272253
  0
LINE
  8
ゴム等
  6
CONTINUOUS
 10
-47.54289
 20
-55.076405
 11
-47.61917
 21
-55.187585
  0
LINE
  8
ゴム等
  6
CONTINUOUS
 10
-47.61917
 20
-55.187585
 11
-47.946547
 21
-55.831477
  0
LINE
  8
ゴム等
  6
CONTINUOUS
 10
-47.54289
 20
-55.076405
 11
-47.179013
 21
-54.419117
  0
LINE
  8
ゴム等
  6
CONTINUOUS
 10
-31.108755
 20
-71.510603
 11
-47.542915
 21
-55.076443
  0
LINE
  8
ゴム等
  6
CONTINUOUS
 10
-31.347937
 20
-71.458882
 11
-47.619195
 21
-55.187622
  0
LINE
  8
ゴム等
  6
CONTINUOUS
 10
-32.655102
 20
-71.122985
 11
-47.946568
 21
-55.83152
  0
LINE
  8
ゴム等
  6
CONTINUOUS
 10
-47.61917
 20
-55.187585
 11
-71.956238
 21
-55.187585
  0
LINE
  8
ゴム等
  6
CONTINUOUS
 10
-47.54289
 20
-55.076405
 11
-71.956238
 21
-55.076405
  0
LINE
  8
ゴム等
  6
CONTINUOUS
 10
-47.946547
 20
-55.831477
 11
-71.23957
 21
-55.831477
  0
LINE
  8
ゴム等
  6
CONTINUOUS
 10
-71.23957
 20
-71.122985
 11
-71.23957
 21
-55.831477
  0
LINE
  8
ゴム等
  6
CONTINUOUS
 10
-71.956238
 20
-71.458882
 11
-71.956238
 21
-54.374162
  0
TEXT
  7
TextStyle03
  8
文字
  6
CONTINUOUS
 10
-21.6
 20
0.175
  1
は排水穴位置を示す
 40
3.0
 72
     5
 11
8.4
 21
0.175
  0
TEXT
  7
TextStyle03
  8
文字
  6
CONTINUOUS
 10
156.15
 20
5.275
  1
×　２枚
 40
4.0
 72
     5
 11
173.65
 21
5.275
  0
TEXT
  7
TextStyle03
  8
文字
  6
CONTINUOUS
 10
156.15
 20
52.1
  1
×　右２枚
 40
4.0
 72
     5
 11
178.15
 21
52.1
  0
TEXT
  7
TextStyle03
  8
文字
  6
CONTINUOUS
 10
156.15
 20
47.6
  1
×　左２枚
 40
4.0
 72
     5
 11
178.15
 21
47.6
  0
TEXT
  7
TextStyle03
  8
文字
  6
CONTINUOUS
 10
-131.45
 20
70.8
  1
アンカーピッチ
 40
3.0
 72
     5
 11
-108.2
 21
70.8
  0
TEXT
  7
TextStyle03
  8
文字
  6
CONTINUOUS
 10
-130.05
 20
1.75
  1
アンカーピッチ
 40
3.0
 50
90.0
 72
     5
 11
-130.05
 21
25.0
  0
TEXT
  7
TextStyle03
  8
文字
  6
CONTINUOUS
 10
70.825
 20
117.475
  1
シリーズ：ＤＦＹＫ
 40
5.0
 72
     5
 11
120.825
 21
117.475
  0
TEXT
  7
TextStyle03
  8
文字
  6
CONTINUOUS
 10
70.825
 20
111.85
  1
　　　　　山型四角錘（固定）900×2400タイプ
 40
5.0
 72
     5
 11
191.1375
 21
111.85
  0
TEXT
  7
TextStyle03
  8
文字
  6
CONTINUOUS
 10
70.825
 20
106.225
  1
図面名　：外観姿図
 40
5.0
 72
     5
 11
120.825
 21
106.225
  0
TEXT
  7
TextStyle03
  8
文字
  6
CONTINUOUS
 10
70.825
 20
100.6
  1

 40
5.0
 41
1.125
  0
TEXT
  7
TextStyle03
  8
文字
  6
CONTINUOUS
 10
70.825
 20
94.975
  1
ＮＳコード：ＮＳ４ＹＫ
 40
5.0
 72
     5
 11
132.075
 21
94.975
  0
INSERT
  2
*DIM_0002
  8
寸法
  6
CONTINUOUS
 10
0.0
 20
0.0
  0
LINE
  8
寸法
  6
CONTINUOUS
 10
-24.65417
 20
2.613172
 11
-23.278538
 21
0.230508
  0
LINE
  8
寸法
  6
CONTINUOUS
 10
-24.65417
 20
2.613172
 11
-26.029803
 21
0.230508
  0
LINE
  8
寸法
  6
CONTINUOUS
 10
-26.029803
 20
0.230508
 11
-23.278538
 21
0.230508
  0
LINE
  8
寸法
  6
CONTINUOUS
 10
-28.003658
 20
-1.421447
 11
10.071655
 21
-1.421447
  0
INSERT
  2
*DIM_0003
  8
寸法
  6
CONTINUOUS
 10
0.0
 20
0.0
  0
INSERT
  2
*DIM_0004
  8
寸法
  6
CONTINUOUS
 10
0.0
 20
0.0
  0
INSERT
  2
*DIM_0005
  8
寸法
  6
CONTINUOUS
 10
0.0
 20
0.0
  0
INSERT
  2
*DIM_0006
  8
寸法
  6
CONTINUOUS
 10
0.0
 20
0.0
  0
INSERT
  2
*DIM_0007
  8
寸法
  6
CONTINUOUS
 10
0.0
 20
0.0
  0
INSERT
  2
*DIM_0008
  8
寸法
  6
CONTINUOUS
 10
0.0
 20
0.0
  0
INSERT
  2
*DIM_0009
  8
寸法
  6
CONTINUOUS
 10
0.0
 20
0.0
  0
INSERT
  2
*DIM_0010
  8
寸法
  6
CONTINUOUS
 10
0.0
 20
0.0
  0
INSERT
  2
*DIM_0011
  8
寸法
  6
CONTINUOUS
 10
0.0
 20
0.0
  0
INSERT
  2
*DIM_0012
  8
寸法
  6
CONTINUOUS
 10
0.0
 20
0.0
  0
INSERT
  2
*DIM_0013
  8
寸法
  6
CONTINUOUS
 10
0.0
 20
0.0
  0
INSERT
  2
*DIM_0014
  8
寸法
  6
CONTINUOUS
 10
0.0
 20
0.0
  0
INSERT
  2
*DIM_0015
  8
寸法
  6
CONTINUOUS
 10
0.0
 20
0.0
  0
INSERT
  2
*DIM_0016
  8
寸法
  6
CONTINUOUS
 10
0.0
 20
0.0
  0
LINE
  8
寸法
  6
CONTINUOUS
 10
-47.48957
 20
17.611188
 11
-46.113937
 21
15.228522
  0
LINE
  8
寸法
  6
CONTINUOUS
 10
-47.48957
 20
17.611188
 11
-48.865203
 21
15.228522
  0
LINE
  8
寸法
  6
CONTINUOUS
 10
-48.865203
 20
15.228522
 11
-46.113937
 21
15.228522
  0
LINE
  8
寸法
  6
CONTINUOUS
 10
-97.48957
 20
17.611188
 11
-98.865203
 21
15.228522
  0
LINE
  8
寸法
  6
CONTINUOUS
 10
-97.48957
 20
17.611188
 11
-96.113937
 21
15.228522
  0
LINE
  8
寸法
  6
CONTINUOUS
 10
-96.113937
 20
15.228522
 11
-98.865203
 21
15.228522
  0
LINE
  8
寸法
  6
CONTINUOUS
 10
-97.48957
 20
56.011188
 11
-98.865203
 21
58.393852
  0
LINE
  8
寸法
  6
CONTINUOUS
 10
-97.48957
 20
56.011188
 11
-96.113937
 21
58.393852
  0
LINE
  8
寸法
  6
CONTINUOUS
 10
-96.113937
 20
58.393852
 11
-98.865203
 21
58.393852
  0
LINE
  8
寸法
  6
CONTINUOUS
 10
-47.48957
 20
56.011188
 11
-46.113937
 21
58.393852
  0
LINE
  8
寸法
  6
CONTINUOUS
 10
-47.48957
 20
56.011188
 11
-48.865203
 21
58.393852
  0
LINE
  8
寸法
  6
CONTINUOUS
 10
-48.865203
 20
58.393852
 11
-46.113937
 21
58.393852
  0
LINE
  8
寸法
  6
CONTINUOUS
 10
-116.689563
 20
36.811188
 11
-119.072228
 21
38.18682
  0
LINE
  8
寸法
  6
CONTINUOUS
 10
-116.689563
 20
36.811188
 11
-119.072228
 21
35.435555
  0
LINE
  8
寸法
  6
CONTINUOUS
 10
-119.072228
 20
35.435555
 11
-119.072228
 21
38.18682
  0
LINE
  8
寸法
  6
CONTINUOUS
 10
-28.289577
 20
36.811188
 11
-25.906912
 21
38.18682
  0
LINE
  8
寸法
  6
CONTINUOUS
 10
-28.289577
 20
36.811188
 11
-25.906912
 21
35.435555
  0
LINE
  8
寸法
  6
CONTINUOUS
 10
-25.906912
 20
35.435555
 11
-25.906912
 21
38.18682
  0
INSERT
  2
*DIM_0017
  8
寸法
  6
CONTINUOUS
 10
0.0
 20
0.0
  0
INSERT
  2
*DIM_0018
  8
寸法
  6
CONTINUOUS
 10
0.0
 20
0.0
  0
INSERT
  2
*DIM_0019
  8
寸法
  6
CONTINUOUS
 10
0.0
 20
0.0
  0
INSERT
  2
*DIM_0020
  8
寸法
  6
CONTINUOUS
 10
0.0
 20
0.0
  0
INSERT
  2
*DIM_0021
  8
寸法
  6
CONTINUOUS
 10
0.0
 20
0.0
  0
INSERT
  2
*DIM_0022
  8
寸法
  6
CONTINUOUS
 10
0.0
 20
0.0
  0
INSERT
  2
*DIM_0023
  8
寸法
  6
CONTINUOUS
 10
0.0
 20
0.0
  0
INSERT
  2
*DIM_0024
  8
寸法
  6
CONTINUOUS
 10
0.0
 20
0.0
  0
INSERT
  2
*DIM_0025
  8
寸法
  6
CONTINUOUS
 10
0.0
 20
0.0
  0
INSERT
  2
*DIM_0026
  8
寸法
  6
CONTINUOUS
 10
0.0
 20
0.0
  0
INSERT
  2
*DIM_0027
  8
寸法
  6
CONTINUOUS
 10
0.0
 20
0.0
  0
LINE
  8
曲げ物
  6
CONTINUOUS
 10
147.046012
 20
43.59949
 11
147.046012
 21
66.51159
  0
LINE
  8
曲げ物
  6
CONTINUOUS
 10
147.046012
 20
43.59949
 11
106.942905
 21
43.59949
  0
LINE
  8
曲げ物
  6
CONTINUOUS
 10
106.942905
 20
43.59949
 11
123.144273
 21
66.51159
  0
LINE
  8
曲げ物
  6
CONTINUOUS
 10
147.046012
 20
66.51159
 11
123.144273
 21
66.51159
  0
LINE
  8
曲げ物
  6
CONTINUOUS
 10
111.141343
 20
-7.802812
 11
142.847573
 21
-7.802812
  0
LINE
  8
曲げ物
  6
CONTINUOUS
 10
111.141343
 20
-7.802812
 11
126.994457
 21
14.61679
  0
LINE
  8
曲げ物
  6
CONTINUOUS
 10
142.847573
 20
-7.802812
 11
126.994457
 21
14.61679
  0
LINE
  8
曲げ物
  6
CONTINUOUS
 10
123.00435
 20
-2.283512
 11
130.86567
 21
5.577808
  0
LINE
  8
曲げ物
  6
CONTINUOUS
 10
128.688237
 20
2.073365
 11
126.508792
 21
-0.10608
  0
LINE
  8
曲げ物
  6
CONTINUOUS
 10
127.361227
 20
3.400375
 11
125.181783
 21
1.22093
  0
LINE
  8
曲げ物
  6
CONTINUOUS
 10
127.792327
 20
51.207928
 11
135.653648
 21
59.069247
  0
LINE
  8
曲げ物
  6
CONTINUOUS
 10
133.476215
 20
55.564805
 11
131.29677
 21
53.38536
  0
LINE
  8
曲げ物
  6
CONTINUOUS
 10
132.149205
 20
56.891815
 11
129.96976
 21
54.71237
  0
ENDSEC
  0
EOF
