  0
SECTION
  2
HEADER
  9
$EXTMIN
 10
-210.0
 20
-148.5
  9
$EXTMAX
 10
210.0
 20
148.5
  9
$PDMODE
 70
    32
  9
$PDSIZE
 40
1.5
  9
$LTSCALE
 40
10.0
  0
ENDSEC
  0
SECTION
  2
TABLES
  0
TABLE
  2
LTYPE
 70
    15
  0
LTYPE
  2
CONTINUOUS
 70
    64
  3
実線
 72
    65
 73
     0
 40
0.0
  0
LTYPE
  2
DASHED
 70
    64
  3
破線A
 72
    65
 73
     2
 40
0.6
 49
0.4
 49
-0.2
  0
LTYPE
  2
DASHEDX2
 70
    64
  3
破線B
 72
    65
 73
     2
 40
1.3
 49
0.9
 49
-0.4
  0
LTYPE
  2
DASHDOT
 70
    64
  3
１点鎖線A
 72
    65
 73
     4
 40
0.5375
 49
0.375
 49
-0.05
 49
0.0625
 49
-0.05
  0
LTYPE
  2
DASHDOTX2
 70
    64
  3
１点鎖線B
 72
    65
 73
     4
 40
1.075
 49
0.75
 49
-0.1
 49
0.125
 49
-0.1
  0
LTYPE
  2
DIVIDE2
 70
    64
  3
２点鎖線A
 72
    65
 73
     6
 40
0.5125
 49
0.3
 49
-0.0375
 49
0.05
 49
-0.0375
 49
0.05
 49
-0.0375
  0
LTYPE
  2
DIVIDE
 70
    64
  3
２点鎖線B
 72
    65
 73
     6
 40
1.05
 49
0.55
 49
-0.1
 49
0.1
 49
-0.1
 49
0.1
 49
-0.1
  0
LTYPE
  2
DOT
 70
    64
  3
点線A
 72
    65
 73
     2
 40
0.1125
 49
0.0625
 49
-0.05
  0
LTYPE
  2
DOTX2
 70
    64
  3
点線B
 72
    65
 73
     2
 40
0.275
 49
0.15
 49
-0.125
  0
LTYPE
  2
CONTINUOUS
 70
    64
  3
実線
 72
    65
 73
     0
 40
0.0
  0
LTYPE
  2
CONTINUOUS
 70
    64
  3
実線
 72
    65
 73
     0
 40
0.0
  0
LTYPE
  2
CONTINUOUS
 70
    64
  3
実線
 72
    65
 73
     0
 40
0.0
  0
LTYPE
  2
CONTINUOUS
 70
    64
  3
実線
 72
    65
 73
     0
 40
0.0
  0
LTYPE
  2
CONTINUOUS
 70
    64
  3
実線
 72
    65
 73
     0
 40
0.0
  0
LTYPE
  2
CONTINUOUS
 70
    64
  3
実線
 72
    65
 73
     0
 40
0.0
  0
ENDTAB
  0
TABLE
  2
LAYER
 70
    34
  0
LAYER
  2
通り芯
 70
     0
 62
    15
  6
CONTINUOUS
  0
LAYER
  2
補助線
 70
     0
 62
    16
  6
DOT
  0
LAYER
  2
躯体
 70
     0
 62
    31
  6
CONTINUOUS
  0
LAYER
  2
型材
 70
     0
 62
    32
  6
CONTINUOUS
  0
LAYER
  2
型材断面
 70
     0
 62
    47
  6
CONTINUOUS
  0
LAYER
  2
ガラス
 70
     0
 62
    48
  6
CONTINUOUS
  0
LAYER
  2
ゴム等
 70
     0
 62
    63
  6
CONTINUOUS
  0
LAYER
  2
ボルト／ビス
 70
     0
 62
    64
  6
CONTINUOUS
  0
LAYER
  2
文字
 70
     0
 62
    79
  6
CONTINUOUS
  0
LAYER
  2
寸法
 70
     0
 62
    80
  6
CONTINUOUS
  0
LAYER
  2
ﾊｯﾁﾝｸﾞ
 70
     0
 62
    95
  6
CONTINUOUS
  0
LAYER
  2
別途部材
 70
     0
 62
    96
  6
CONTINUOUS
  0
LAYER
  2
曲げ物
 70
     0
 62
   111
  6
CONTINUOUS
  0
LAYER
  2
鉄骨等
 70
     0
 62
   112
  6
CONTINUOUS
  0
LAYER
  2
St
 70
     0
 62
   127
  6
CONTINUOUS
  0
LAYER
  2
その他部品等
 70
     0
 62
   128
  6
CONTINUOUS
  0
LAYER
  2
ｶﾞｽｹｯﾄ
 70
     0
 62
   143
  6
CONTINUOUS
  0
LAYER
  2
ｽｹｯﾁ
 70
     0
 62
    14
  6
CONTINUOUS
  0
LAYER
  2
0
 70
     0
 62
    17
  6
CONTINUOUS
  0
LAYER
  2
1
 70
     0
 62
    30
  6
CONTINUOUS
  0
LAYER
  2
4
 70
     0
 62
    33
  6
CONTINUOUS
  0
LAYER
  2
ﾚｲﾔ3
 70
     0
 62
    46
  6
CONTINUOUS
  0
LAYER
  2
外形線
 70
     0
 62
    49
  6
CONTINUOUS
  0
LAYER
  2
部品
 70
     0
 62
    14
  6
CONTINUOUS
  0
LAYER
  2
サッシ芯
 70
     0
 62
    17
  6
DASHDOTX2
  0
LAYER
  2
寸法線
 70
     0
 62
    62
  6
CONTINUOUS
  0
LAYER
  2
姿図外形線
 70
     0
 62
    65
  6
CONTINUOUS
  0
LAYER
  2
姿補助線
 70
     0
 62
    30
  6
CONTINUOUS
  0
LAYER
  2
透視線
 70
     0
 62
    78
  6
DOT
  0
LAYER
  2
用紙
 70
     0
 62
    81
  6
CONTINUOUS
  0
LAYER
  2
実線図枠
 70
     0
 62
    94
  6
CONTINUOUS
  0
LAYER
  2
補助図枠
 70
     0
 62
    97
  6
CONTINUOUS
  0
LAYER
  2
建具記号
 70
     0
 62
   110
  6
CONTINUOUS
  0
LAYER
  2
補助文字
 70
     0
 62
   113
  6
CONTINUOUS
  0
ENDTAB
  0
TABLE
  2
STYLE
 70
    10
  0
STYLE
  2
STANDARD
 70
     0
 40
1.0
 41
1.0
 42
1.0
 50
0.0
 71
     0
  3
TXT
  4
BIGFONT
  0
STYLE
  2
TATE
 70
     4
 40
1.0
 41
1.0
 42
1.0
 50
0.0
 71
     0
  3
TXT
  4
BIGFONT
  0
STYLE
  2
TextStyle03
 70
     0
 40
1.0
 41
1.0
 42
1.0
 50
0.0
 71
     0
  3
MONOTXT
  4
BIGFONT
  0
STYLE
  2
TextStyle04
 70
     0
 40
1.0
 41
1.0
 42
1.0
 50
0.0
 71
     0
  3
MONOTXT
  4
BIGFONT
  0
STYLE
  2
TextStyle05
 70
     0
 40
1.0
 41
1.0
 42
1.0
 50
0.0
 71
     0
  3
MONOTXT
  4
BIGFONT
  0
STYLE
  2
TextStyle06
 70
     0
 40
1.0
 41
1.0
 42
1.0
 50
0.0
 71
     0
  3
MONOTXT
  4
BIGFONT
  0
STYLE
  2
TextStyle07
 70
     0
 40
1.0
 41
1.0
 42
1.0
 50
0.0
 71
     0
  3
MONOTXT
  4
BIGFONT
  0
STYLE
  2
TextStyle08
 70
     0
 40
1.0
 41
1.0
 42
1.0
 50
0.0
 71
     0
  3
MONOTXT
  4
BIGFONT
  0
STYLE
  2
TextStyle09
 70
     0
 40
1.0
 41
1.0
 42
1.0
 50
0.0
 71
     0
  3
MONOTXT
  4
BIGFONT
  0
STYLE
  2
TextStyle10
 70
     0
 40
1.0
 41
1.0
 42
1.0
 50
0.0
 71
     0
  3
MONOTXT
  4
BIGFONT
  0
ENDTAB
  0
ENDSEC
  0
SECTION
  2
BLOCKS
  0
BLOCK
  2
*GRP_0001
 70
    65
 10
0.0
 20
0.0
  0
LINE
  8
型材断面
  6
CONTINUOUS
 10
195.0
 20
133.5
 11
195.0
 21
-133.5
  0
LINE
  8
型材断面
  6
CONTINUOUS
 10
195.0
 20
-133.5
 11
-185.0
 21
-133.5
  0
LINE
  8
型材断面
  6
CONTINUOUS
 10
-185.0
 20
-133.5
 11
-185.0
 21
133.5
  0
LINE
  8
型材断面
  6
CONTINUOUS
 10
195.0
 20
133.5
 11
-185.0
 21
133.5
  0
LINE
  8
型材断面
  6
CONTINUOUS
 10
145.0
 20
-133.5
 11
145.0
 21
-118.5
  0
LINE
  8
型材断面
  6
CONTINUOUS
 10
195.0
 20
-118.5
 11
145.0
 21
-118.5
  0
ENDBLK
  0
BLOCK
  2
*DIM_0002
 70
    65
 10
0.0
 20
0.0
  0
LINE
  8
寸法
  6
BYBLOCK
 62
     0
 10
-32.48957
 20
-22.481818
 11
-32.48957
 21
-24.875757
  0
LINE
  8
寸法
  6
BYBLOCK
 62
     0
 10
-112.48957
 20
-24.875757
 11
-32.48957
 21
-24.875757
  0
POINT
  8
寸法
 62
     0
 10
-32.48957
 20
-24.875757
  0
TEXT
  7
TextStyle03
  8
寸法
  6
CONTINUOUS
 62
     0
 10
-84.21875
 20
-24.525
  1
呼称寸法＝2400
 40
3.0
 72
     5
 11
-60.78125
 21
-24.525
  0
ENDBLK
  0
BLOCK
  2
*DIM_0003
 70
    65
 10
0.0
 20
0.0
  0
LINE
  8
寸法
  6
BYBLOCK
 62
     0
 10
15.81096
 20
75.144522
 11
15.81096
 21
21.811188
  0
POINT
  8
寸法
 62
     0
 10
15.81096
 20
21.811188
  0
TEXT
  7
TextStyle03
  8
寸法
  6
CONTINUOUS
 62
     0
 10
15.425
 20
36.75625
  1
呼称寸法＝1600
 40
3.0
 50
90.0
 72
     5
 11
15.425
 21
60.19375
  0
ENDBLK
  0
BLOCK
  2
*DIM_0004
 70
    65
 10
0.0
 20
0.0
  0
LINE
  8
寸法
  6
BYBLOCK
 62
     0
 10
-97.48957
 20
12.228522
 11
-97.48957
 21
6.775155
  0
LINE
  8
寸法
  6
BYBLOCK
 62
     0
 10
-47.48957
 20
12.228522
 11
-47.48957
 21
6.775155
  0
LINE
  8
寸法
  6
BYBLOCK
 62
     0
 10
-97.48957
 20
6.775155
 11
-47.48957
 21
6.775155
  0
POINT
  8
寸法
 62
     0
 10
-97.48957
 20
6.775155
  0
POINT
  8
寸法
 62
     0
 10
-47.48957
 20
6.775155
  0
TEXT
  7
TextStyle03
  8
寸法
  6
CONTINUOUS
 62
     0
 10
-75.80625
 20
7.15
  1
1500
 40
3.0
 72
     5
 11
-69.24375
 21
7.15
  0
ENDBLK
  0
BLOCK
  2
*DIM_0005
 70
    65
 10
0.0
 20
0.0
  0
LINE
  8
寸法
  6
BYBLOCK
 62
     0
 10
52.867913
 20
79.06119
 11
10.807562
 21
79.06119
  0
LINE
  8
寸法
  6
BYBLOCK
 62
     0
 10
52.867913
 20
17.89452
 11
10.807562
 21
17.89452
  0
LINE
  8
寸法
  6
BYBLOCK
 62
     0
 10
10.807562
 20
79.06119
 11
10.807562
 21
17.89452
  0
POINT
  8
寸法
 62
     0
 10
10.807562
 20
79.06119
  0
POINT
  8
寸法
 62
     0
 10
10.807562
 20
17.89452
  0
TEXT
  7
TextStyle03
  8
寸法
  6
CONTINUOUS
 62
     0
 10
10.425
 20
45.19375
  1
1835
 40
3.0
 50
90.0
 72
     5
 11
10.425
 21
51.75625
  0
ENDBLK
  0
BLOCK
  2
*DIM_0006
 70
    65
 10
0.0
 20
0.0
  0
LINE
  8
寸法
  6
BYBLOCK
 62
     0
 10
15.81096
 20
21.811188
 11
15.81096
 21
17.89452
  0
POINT
  8
寸法
 62
     0
 10
15.81096
 20
21.811188
  0
POINT
  8
寸法
 62
     0
 10
15.81096
 20
17.89452
  0
TEXT
  7
TextStyle03
  8
寸法
  6
CONTINUOUS
 62
     0
 10
15.425
 20
7.3
  1
117.5
 40
3.0
 50
90.0
 72
     5
 11
15.425
 21
15.55
  0
ENDBLK
  0
BLOCK
  2
*DIM_0007
 70
    65
 10
0.0
 20
0.0
  0
LINE
  8
寸法
  6
BYBLOCK
 62
     0
 10
15.81096
 20
75.144522
 11
15.81096
 21
79.06119
  0
POINT
  8
寸法
 62
     0
 10
15.81096
 20
75.144522
  0
POINT
  8
寸法
 62
     0
 10
15.81096
 20
79.06119
  0
TEXT
  7
TextStyle03
  8
寸法
  6
CONTINUOUS
 62
     0
 10
15.425
 20
81.4
  1
117.5
 40
3.0
 50
90.0
 72
     5
 11
15.425
 21
89.65
  0
ENDBLK
  0
BLOCK
  2
*DIM_0008
 70
    65
 10
0.0
 20
0.0
  0
LINE
  8
寸法
  6
BYBLOCK
 62
     0
 10
58.001245
 20
14.89452
 11
58.001245
 21
-1.533403
  0
LINE
  8
寸法
  6
BYBLOCK
 62
     0
 10
55.867913
 20
14.89452
 11
55.867913
 21
-1.533403
  0
LINE
  8
寸法
  6
BYBLOCK
 62
     0
 10
58.001245
 20
-1.533403
 11
55.867913
 21
-1.533403
  0
POINT
  8
寸法
 62
     0
 10
58.001245
 20
-1.533403
  0
POINT
  8
寸法
 62
     0
 10
55.867913
 20
-1.533403
  0
TEXT
  7
TextStyle03
  8
寸法
  6
CONTINUOUS
 62
     0
 10
58.70625
 20
-1.175
  1
64
 40
3.0
 72
     5
 11
61.89375
 21
-1.175
  0
ENDBLK
  0
BLOCK
  2
*DIM_0009
 70
    65
 10
0.0
 20
0.0
  0
LINE
  8
寸法
  6
BYBLOCK
 62
     0
 10
25.166848
 20
45.477855
 11
25.166848
 21
-1.533403
  0
LINE
  8
寸法
  6
BYBLOCK
 62
     0
 10
55.867913
 20
-1.533403
 11
25.166848
 21
-1.533403
  0
POINT
  8
寸法
 62
     0
 10
55.867913
 20
-1.533403
  0
POINT
  8
寸法
 62
     0
 10
25.166848
 20
-1.533403
  0
TEXT
  7
TextStyle03
  8
寸法
  6
CONTINUOUS
 62
     0
 10
38.0625
 20
-1.175
  1
921
 40
3.0
 72
     5
 11
42.9375
 21
-1.175
  0
ENDBLK
  0
BLOCK
  2
*DIM_0010
 70
    65
 10
0.0
 20
0.0
  0
LINE
  8
寸法
  6
BYBLOCK
 62
     0
 10
-116.406238
 20
-69.22949
 11
-116.406238
 21
-19.064915
  0
LINE
  8
寸法
  6
BYBLOCK
 62
     0
 10
-28.572902
 20
-69.22949
 11
-28.572902
 21
-19.064915
  0
LINE
  8
寸法
  6
BYBLOCK
 62
     0
 10
-116.406238
 20
-19.064915
 11
-28.572902
 21
-19.064915
  0
POINT
  8
寸法
 62
     0
 10
-116.406238
 20
-19.064915
  0
POINT
  8
寸法
 62
     0
 10
-28.572902
 20
-19.064915
  0
TEXT
  7
TextStyle03
  8
寸法
  6
CONTINUOUS
 62
     0
 10
-75.78125
 20
-18.7
  1
2635
 40
3.0
 72
     5
 11
-69.21875
 21
-18.7
  0
ENDBLK
  0
BLOCK
  2
*DIM_0011
 70
    65
 10
0.0
 20
0.0
  0
LINE
  8
寸法
  6
BYBLOCK
 62
     0
 10
-32.48957
 20
-24.875757
 11
-28.572902
 21
-24.875757
  0
POINT
  8
寸法
 62
     0
 10
-32.48957
 20
-24.875757
  0
POINT
  8
寸法
 62
     0
 10
-28.572902
 20
-24.875757
  0
TEXT
  7
TextStyle03
  8
寸法
  6
CONTINUOUS
 62
     0
 10
-26.25
 20
-24.525
  1
117.5
 40
3.0
 72
     5
 11
-18.0
 21
-24.525
  0
ENDBLK
  0
BLOCK
  2
*DIM_0012
 70
    65
 10
0.0
 20
0.0
  0
LINE
  8
寸法
  6
BYBLOCK
 62
     0
 10
-112.48957
 20
-24.875757
 11
-116.406238
 21
-24.875757
  0
POINT
  8
寸法
 62
     0
 10
-112.48957
 20
-24.875757
  0
POINT
  8
寸法
 62
     0
 10
-116.406238
 20
-24.875757
  0
TEXT
  7
TextStyle03
  8
寸法
  6
CONTINUOUS
 62
     0
 10
-127.0
 20
-24.525
  1
117.5
 40
3.0
 72
     5
 11
-118.75
 21
-24.525
  0
ENDBLK
  0
BLOCK
  2
*DIM_0013
 70
    65
 10
0.0
 20
0.0
  0
LINE
  8
寸法
  6
BYBLOCK
 62
     0
 10
-25.572902
 20
-74.362823
 11
-5.69874
 21
-74.362823
  0
LINE
  8
寸法
  6
BYBLOCK
 62
     0
 10
-25.572902
 20
-72.22949
 11
-5.69874
 21
-72.22949
  0
LINE
  8
寸法
  6
BYBLOCK
 62
     0
 10
-5.69874
 20
-74.362823
 11
-5.69874
 21
-72.22949
  0
POINT
  8
寸法
 62
     0
 10
-5.69874
 20
-74.362823
  0
POINT
  8
寸法
 62
     0
 10
-5.69874
 20
-72.22949
  0
TEXT
  7
TextStyle03
  8
寸法
  6
CONTINUOUS
 62
     0
 10
-6.075
 20
-78.26875
  1
64
 40
3.0
 50
90.0
 72
     5
 11
-6.075
 21
-75.08125
  0
ENDBLK
  0
BLOCK
  2
*DIM_0014
 70
    65
 10
0.0
 20
0.0
  0
LINE
  8
寸法
  6
BYBLOCK
 62
     0
 10
-56.15624
 20
-41.528425
 11
-5.69874
 21
-41.528425
  0
LINE
  8
寸法
  6
BYBLOCK
 62
     0
 10
-5.69874
 20
-72.22949
 11
-5.69874
 21
-41.528425
  0
POINT
  8
寸法
 62
     0
 10
-5.69874
 20
-41.528425
  0
TEXT
  7
TextStyle03
  8
寸法
  6
CONTINUOUS
 62
     0
 10
-6.075
 20
-59.3375
  1
921
 40
3.0
 50
90.0
 72
     5
 11
-6.075
 21
-54.4625
  0
ENDBLK
  0
BLOCK
  2
*DIM_0015
 70
    65
 10
0.0
 20
0.0
  0
LINE
  8
寸法
  6
BYBLOCK
 62
     0
 10
100.123447
 20
32.27661
 11
100.123447
 21
25.149835
  0
LINE
  8
寸法
  6
BYBLOCK
 62
     0
 10
140.226555
 20
32.27661
 11
140.226555
 21
25.149835
  0
LINE
  8
寸法
  6
BYBLOCK
 62
     0
 10
100.123447
 20
25.149835
 11
140.226555
 21
25.149835
  0
POINT
  8
寸法
 62
     0
 10
100.123447
 20
25.149835
  0
POINT
  8
寸法
 62
     0
 10
140.226555
 20
25.149835
  0
TEXT
  7
TextStyle03
  8
寸法
  6
CONTINUOUS
 62
     0
 10
115.20625
 20
25.5
  1
1203.1
 40
3.0
 72
     5
 11
125.14375
 21
25.5
  0
ENDBLK
  0
BLOCK
  2
*DIM_0016
 70
    65
 10
0.0
 20
0.0
  0
LINE
  8
寸法
  6
BYBLOCK
 62
     0
 10
127.991482
 20
77.687803
 11
127.991482
 21
79.326648
  0
LINE
  8
寸法
  6
BYBLOCK
 62
     0
 10
140.226555
 20
77.687803
 11
140.226555
 21
79.326648
  0
LINE
  8
寸法
  6
BYBLOCK
 62
     0
 10
127.991482
 20
79.326648
 11
140.226555
 21
79.326648
  0
POINT
  8
寸法
 62
     0
 10
127.991482
 20
79.326648
  0
POINT
  8
寸法
 62
     0
 10
140.226555
 20
79.326648
  0
TEXT
  7
TextStyle03
  8
寸法
  6
CONTINUOUS
 62
     0
 10
129.975
 20
79.7
  1
367.1
 40
3.0
 72
     5
 11
138.225
 21
79.7
  0
ENDBLK
  0
BLOCK
  2
*DIM_0017
 70
    65
 10
0.0
 20
0.0
  0
LINE
  8
寸法
  6
BYBLOCK
 62
     0
 10
97.123447
 20
35.27661
 11
88.325857
 21
35.27661
  0
LINE
  8
寸法
  6
BYBLOCK
 62
     0
 10
124.991482
 20
74.687803
 11
88.325857
 21
74.687803
  0
LINE
  8
寸法
  6
BYBLOCK
 62
     0
 10
88.325857
 20
35.27661
 11
88.325857
 21
74.687803
  0
POINT
  8
寸法
 62
     0
 10
88.325857
 20
35.27661
  0
POINT
  8
寸法
 62
     0
 10
88.325857
 20
74.687803
  0
TEXT
  7
TextStyle03
  8
寸法
  6
CONTINUOUS
 62
     0
 10
87.95
 20
50.00625
  1
1182.3
 40
3.0
 50
90.0
 72
     5
 11
87.95
 21
59.94375
  0
ENDBLK
  0
BLOCK
  2
*DIM_0018
 70
    65
 10
0.0
 20
0.0
  0
ARC
  8
寸法
  6
BYBLOCK
 62
     0
 10
100.123447
 20
35.27661
 40
14.56951
 50
0.0
 51
54.7355
  0
POINT
  8
寸法
 62
     0
 10
108.53518
 20
47.172547
  0
POINT
  8
寸法
 62
     0
 10
114.692958
 20
35.27661
  0
TEXT
  7
TextStyle03
  8
寸法
  6
CONTINUOUS
 62
     0
 10
110.320707
 20
48.047225
  1
54.7355
 40
3.0
 50
297.37
 72
     5
 11
115.665125
 21
37.723571
  0
TEXT
  7
TextStyle03
  8
寸法
  6
CONTINUOUS
 62
     0
 10
115.748115
 20
37.55144
  1
ﾟ
 40
3.0
 50
297.37
 41
0.5625
  0
ENDBLK
  0
BLOCK
  2
*DIM_0019
 70
    65
 10
0.0
 20
0.0
  0
LINE
  8
寸法
  6
BYBLOCK
 62
     0
 10
92.65522
 20
-29.373613
 11
92.65522
 21
-35.8515
  0
LINE
  8
寸法
  6
BYBLOCK
 62
     0
 10
147.694785
 20
-29.373613
 11
147.694785
 21
-35.8515
  0
LINE
  8
寸法
  6
BYBLOCK
 62
     0
 10
92.65522
 20
-35.8515
 11
147.694785
 21
-35.8515
  0
POINT
  8
寸法
 62
     0
 10
92.65522
 20
-35.8515
  0
POINT
  8
寸法
 62
     0
 10
147.694785
 20
-35.8515
  0
TEXT
  7
TextStyle03
  8
寸法
  6
CONTINUOUS
 62
     0
 10
115.20625
 20
-35.5
  1
1651.2
 40
3.0
 72
     5
 11
125.14375
 21
-35.5
  0
ENDBLK
  0
BLOCK
  2
*DIM_0020
 70
    65
 10
0.0
 20
0.0
  0
LINE
  8
寸法
  6
BYBLOCK
 62
     0
 10
89.65522
 20
-26.373613
 11
86.24314
 21
-26.373613
  0
LINE
  8
寸法
  6
BYBLOCK
 62
     0
 10
117.175002
 20
12.54508
 11
86.24314
 21
12.54508
  0
LINE
  8
寸法
  6
BYBLOCK
 62
     0
 10
86.24314
 20
-26.373613
 11
86.24314
 21
12.54508
  0
POINT
  8
寸法
 62
     0
 10
86.24314
 20
-26.373613
  0
POINT
  8
寸法
 62
     0
 10
86.24314
 20
12.54508
  0
TEXT
  7
TextStyle03
  8
寸法
  6
CONTINUOUS
 62
     0
 10
85.85
 20
-11.89375
  1
1167.6
 40
3.0
 50
90.0
 72
     5
 11
85.85
 21
-1.95625
  0
ENDBLK
  0
BLOCK
  2
*DIM_0021
 70
    65
 10
0.0
 20
0.0
  0
ARC
  8
寸法
  6
BYBLOCK
 62
     0
 10
92.65522
 20
-26.373613
 40
13.664541
 50
0.0
 51
54.735499
  0
POINT
  8
寸法
 62
     0
 10
100.544468
 20
-15.216578
  0
POINT
  8
寸法
 62
     0
 10
106.31976
 20
-26.373613
  0
TEXT
  7
TextStyle03
  8
寸法
  6
CONTINUOUS
 62
     0
 10
102.045707
 20
-14.027775
  1
54.7355
 40
3.0
 50
297.37
 72
     5
 11
107.390125
 21
-24.351429
  0
TEXT
  7
TextStyle03
  8
寸法
  6
CONTINUOUS
 62
     0
 10
107.473115
 20
-24.49856
  1
ﾟ
 40
3.0
 50
297.37
 41
0.5625
  0
ENDBLK
  0
BLOCK
  2
*DIM_0022
 70
    65
 10
0.0
 20
0.0
  0
ARC
  8
寸法
  6
BYBLOCK
 62
     0
 10
147.694785
 20
-26.373613
 40
13.664541
 50
125.264501
 51
180.0
  0
POINT
  8
寸法
 62
     0
 10
139.805537
 20
-15.216578
  0
POINT
  8
寸法
 62
     0
 10
134.030245
 20
-26.373613
  0
TEXT
  7
TextStyle03
  8
寸法
  6
CONTINUOUS
 62
     0
 10
132.159875
 20
-25.826429
  1
54.7355
 40
3.0
 50
62.63
 72
     5
 11
137.504293
 21
-15.502775
  0
TEXT
  7
TextStyle03
  8
寸法
  6
CONTINUOUS
 62
     0
 10
137.587283
 20
-15.355644
  1
ﾟ
 40
3.0
 50
62.63
 41
0.5625
  0
ENDBLK
  0
BLOCK
  2
*DIM_0023
 70
    65
 10
0.0
 20
0.0
  0
LINE
  8
寸法
  6
BYBLOCK
 62
     0
 10
-105.822902
 20
82.06119
 11
-105.822902
 21
95.852232
  0
LINE
  8
寸法
  6
BYBLOCK
 62
     0
 10
-89.156238
 20
82.06119
 11
-89.156238
 21
95.852232
  0
LINE
  8
寸法
  6
BYBLOCK
 62
     0
 10
-105.822902
 20
95.852232
 11
-89.156238
 21
95.852232
  0
POINT
  8
寸法
 62
     0
 10
-105.822902
 20
95.852232
  0
POINT
  8
寸法
 62
     0
 10
-89.156238
 20
95.852232
  0
TEXT
  7
TextStyle03
  8
寸法
  6
CONTINUOUS
 62
     0
 10
-99.9375
 20
96.225
  1
500
 40
3.0
 72
     5
 11
-95.0625
 21
96.225
  0
ENDBLK
  0
BLOCK
  2
*DIM_0024
 70
    65
 10
0.0
 20
0.0
  0
LINE
  8
寸法
  6
BYBLOCK
 62
     0
 10
-72.489573
 20
82.06119
 11
-72.489573
 21
95.852232
  0
LINE
  8
寸法
  6
BYBLOCK
 62
     0
 10
-89.156238
 20
82.06119
 11
-89.156238
 21
95.852232
  0
LINE
  8
寸法
  6
BYBLOCK
 62
     0
 10
-72.489573
 20
95.852232
 11
-89.156238
 21
95.852232
  0
POINT
  8
寸法
 62
     0
 10
-72.489573
 20
95.852232
  0
POINT
  8
寸法
 62
     0
 10
-89.156238
 20
95.852232
  0
TEXT
  7
TextStyle03
  8
寸法
  6
CONTINUOUS
 62
     0
 10
-83.2625
 20
96.225
  1
500
 40
3.0
 72
     5
 11
-78.3875
 21
96.225
  0
ENDBLK
  0
BLOCK
  2
*DIM_0025
 70
    65
 10
0.0
 20
0.0
  0
LINE
  8
寸法
  6
BYBLOCK
 62
     0
 10
-72.489573
 20
82.06119
 11
-72.489573
 21
95.852232
  0
LINE
  8
寸法
  6
BYBLOCK
 62
     0
 10
-55.822908
 20
82.06119
 11
-55.822908
 21
95.852232
  0
LINE
  8
寸法
  6
BYBLOCK
 62
     0
 10
-72.489573
 20
95.852232
 11
-55.822908
 21
95.852232
  0
POINT
  8
寸法
 62
     0
 10
-72.489573
 20
95.852232
  0
POINT
  8
寸法
 62
     0
 10
-55.822908
 20
95.852232
  0
TEXT
  7
TextStyle03
  8
寸法
  6
CONTINUOUS
 62
     0
 10
-66.6125
 20
96.225
  1
500
 40
3.0
 72
     5
 11
-61.7375
 21
96.225
  0
ENDBLK
  0
BLOCK
  2
*DIM_0026
 70
    65
 10
0.0
 20
0.0
  0
LINE
  8
寸法
  6
BYBLOCK
 62
     0
 10
-39.156243
 20
82.06119
 11
-39.156243
 21
95.852232
  0
LINE
  8
寸法
  6
BYBLOCK
 62
     0
 10
-55.822908
 20
82.06119
 11
-55.822908
 21
95.852232
  0
LINE
  8
寸法
  6
BYBLOCK
 62
     0
 10
-39.156243
 20
95.852232
 11
-55.822908
 21
95.852232
  0
POINT
  8
寸法
 62
     0
 10
-39.156243
 20
95.852232
  0
POINT
  8
寸法
 62
     0
 10
-55.822908
 20
95.852232
  0
TEXT
  7
TextStyle03
  8
寸法
  6
CONTINUOUS
 62
     0
 10
-49.9375
 20
96.225
  1
500
 40
3.0
 72
     5
 11
-45.0625
 21
96.225
  0
ENDBLK
  0
BLOCK
  2
*DIM_0027
 70
    65
 10
0.0
 20
0.0
  0
LINE
  8
寸法
  6
BYBLOCK
 62
     0
 10
-119.40623
 20
70.977852
 11
-137.193537
 21
70.977852
  0
LINE
  8
寸法
  6
BYBLOCK
 62
     0
 10
-119.40623
 20
55.977852
 11
-137.193537
 21
55.977852
  0
LINE
  8
寸法
  6
BYBLOCK
 62
     0
 10
-137.193537
 20
70.977852
 11
-137.193537
 21
55.977852
  0
POINT
  8
寸法
 62
     0
 10
-137.193537
 20
70.977852
  0
POINT
  8
寸法
 62
     0
 10
-137.193537
 20
55.977852
  0
TEXT
  7
TextStyle03
  8
寸法
  6
CONTINUOUS
 62
     0
 10
-137.575
 20
61.0375
  1
450
 40
3.0
 50
90.0
 72
     5
 11
-137.575
 21
65.9125
  0
ENDBLK
  0
BLOCK
  2
*DIM_0028
 70
    65
 10
0.0
 20
0.0
  0
LINE
  8
寸法
  6
BYBLOCK
 62
     0
 10
-119.40623
 20
40.977852
 11
-137.193537
 21
40.977852
  0
LINE
  8
寸法
  6
BYBLOCK
 62
     0
 10
-119.40623
 20
55.977852
 11
-137.193537
 21
55.977852
  0
LINE
  8
寸法
  6
BYBLOCK
 62
     0
 10
-137.193537
 20
40.977852
 11
-137.193537
 21
55.977852
  0
POINT
  8
寸法
 62
     0
 10
-137.193537
 20
40.977852
  0
POINT
  8
寸法
 62
     0
 10
-137.193537
 20
55.977852
  0
TEXT
  7
TextStyle03
  8
寸法
  6
CONTINUOUS
 62
     0
 10
-137.575
 20
46.0375
  1
450
 40
3.0
 50
90.0
 72
     5
 11
-137.575
 21
50.9125
  0
ENDBLK
  0
BLOCK
  2
*DIM_0029
 70
    65
 10
0.0
 20
0.0
  0
LINE
  8
寸法
  6
BYBLOCK
 62
     0
 10
-119.40623
 20
40.977852
 11
-137.193537
 21
40.977852
  0
LINE
  8
寸法
  6
BYBLOCK
 62
     0
 10
-119.40623
 20
25.977852
 11
-137.193537
 21
25.977852
  0
LINE
  8
寸法
  6
BYBLOCK
 62
     0
 10
-137.193537
 20
40.977852
 11
-137.193537
 21
25.977852
  0
POINT
  8
寸法
 62
     0
 10
-137.193537
 20
40.977852
  0
POINT
  8
寸法
 62
     0
 10
-137.193537
 20
25.977852
  0
TEXT
  7
TextStyle03
  8
寸法
  6
CONTINUOUS
 62
     0
 10
-137.575
 20
31.0375
  1
450
 40
3.0
 50
90.0
 72
     5
 11
-137.575
 21
35.9125
  0
ENDBLK
  0
ENDSEC
  0
SECTION
  2
ENTITIES
  0
POLYLINE
  8
通り芯
  6
CONTINUOUS
 66
     1
 70
     1
  0
VERTEX
  8
通り芯
 10
-210.0
 20
-148.5
  0
VERTEX
  8
通り芯
 10
210.0
 20
-148.5
  0
VERTEX
  8
通り芯
 10
210.0
 20
148.5
  0
VERTEX
  8
通り芯
 10
-210.0
 20
148.5
  0
SEQEND
  0
INSERT
  2
*GRP_0001
  8
型材断面
  6
CONTINUOUS
 10
0.0
 20
0.0
  0
LINE
  8
型材断面
  6
CONTINUOUS
 10
-87.362503
 20
46.938248
 11
-87.362503
 21
47.875367
  0
LINE
  8
型材断面
  6
CONTINUOUS
 10
-87.362503
 20
46.938248
 11
-86.425382
 21
46.938248
  0
LINE
  8
型材断面
  6
CONTINUOUS
 10
-86.760015
 20
48.477855
 11
-87.362503
 21
47.875367
  0
LINE
  8
型材断面
  6
CONTINUOUS
 10
-87.362503
 20
46.938248
 11
-85.822895
 21
48.477855
  0
LINE
  8
型材断面
  6
CONTINUOUS
 10
-86.425382
 20
46.938248
 11
-86.080785
 21
47.282845
  0
LINE
  8
型材断面
  6
CONTINUOUS
 10
-86.080785
 20
47.282845
 11
-85.822895
 21
48.477855
  0
LINE
  8
型材断面
  6
CONTINUOUS
 10
-84.061965
 20
47.362808
 11
-72.48957
 21
47.362808
  0
LINE
  8
型材断面
  6
DASHDOT
 10
-32.48957
 20
-79.403385
 11
-32.48957
 21
75.144522
  0
LINE
  8
型材断面
  6
DASHDOT
 10
-72.48957
 20
-79.403385
 11
-72.48957
 21
75.144522
  0
LINE
  8
型材断面
  6
DASHDOT
 10
-112.48957
 20
-79.403385
 11
-112.48957
 21
75.144522
  0
LINE
  8
型材断面
  6
CONTINUOUS
 62
    47
 10
55.867913
 20
17.89452
 11
58.001245
 21
17.89452
  0
LINE
  8
型材断面
  6
CONTINUOUS
 10
55.867913
 20
17.89452
 11
55.809048
 21
17.835655
  0
LINE
  8
型材断面
  6
CONTINUOUS
 62
    47
 10
58.001245
 20
18.461188
 11
58.517913
 21
18.461188
  0
LINE
  8
型材断面
  6
CONTINUOUS
 10
26.682863
 20
46.938245
 11
26.682863
 21
47.875365
  0
LINE
  8
型材断面
  6
CONTINUOUS
 10
26.080375
 20
48.477855
 11
26.682863
 21
47.875365
  0
LINE
  8
型材断面
  6
CONTINUOUS
 10
26.682863
 20
46.938245
 11
25.143255
 21
48.477855
  0
LINE
  8
型材断面
  6
CONTINUOUS
 10
55.867913
 20
18.620478
 11
26.682863
 21
47.805525
  0
LINE
  8
型材断面
  6
CONTINUOUS
 10
55.867913
 20
17.89452
 11
55.867913
 21
48.477855
  0
LINE
  8
型材断面
  6
CONTINUOUS
 62
    47
 10
58.001245
 20
17.89452
 11
58.001245
 21
48.477855
  0
LINE
  8
型材断面
  6
CONTINUOUS
 62
    47
 10
58.517913
 20
18.461188
 11
58.517913
 21
48.477855
  0
LINE
  8
型材断面
  6
CONTINUOUS
 62
    47
 10
55.867913
 20
79.06119
 11
58.001245
 21
79.06119
  0
LINE
  8
型材断面
  6
CONTINUOUS
 10
55.867913
 20
79.06119
 11
55.809048
 21
79.120055
  0
LINE
  8
型材断面
  6
CONTINUOUS
 62
    47
 10
58.001245
 20
78.494522
 11
58.517913
 21
78.494522
  0
LINE
  8
型材断面
  6
CONTINUOUS
 10
26.682863
 20
50.017465
 11
26.682863
 21
49.080345
  0
LINE
  8
型材断面
  6
CONTINUOUS
 10
26.080375
 20
48.477855
 11
26.682863
 21
49.080345
  0
LINE
  8
型材断面
  6
CONTINUOUS
 10
26.682863
 20
50.017465
 11
25.143255
 21
48.477855
  0
LINE
  8
型材断面
  6
CONTINUOUS
 10
55.867913
 20
78.335232
 11
26.682863
 21
49.150185
  0
LINE
  8
型材断面
  6
CONTINUOUS
 10
55.867913
 20
79.06119
 11
55.867913
 21
48.477855
  0
LINE
  8
型材断面
  6
CONTINUOUS
 62
    47
 10
58.001245
 20
79.06119
 11
58.001245
 21
48.477855
  0
LINE
  8
型材断面
  6
CONTINUOUS
 62
    47
 10
58.517913
 20
78.494522
 11
58.517913
 21
48.477855
  0
LINE
  8
型材断面
  6
DASHDOT
 10
-112.48957
 20
48.477855
 11
58.517913
 21
48.477855
  0
LINE
  8
型材断面
  6
DASHDOT
 10
-112.48957
 20
75.144522
 11
58.517913
 21
75.144522
  0
LINE
  8
型材断面
  6
DASHDOT
 10
-112.48957
 20
21.811188
 11
58.517913
 21
21.811188
  0
LINE
  8
型材断面
  6
CONTINUOUS
 10
55.809048
 20
17.835655
 11
25.166848
 21
48.477855
  0
LINE
  8
型材断面
  6
CONTINUOUS
 10
55.809048
 20
79.120055
 11
25.166848
 21
48.477855
  0
LINE
  8
型材断面
  6
CONTINUOUS
 10
-86.571545
 20
46.938248
 11
-115.615272
 21
17.89452
  0
LINE
  8
型材断面
  6
CONTINUOUS
 10
-87.362503
 20
47.729205
 11
-116.40623
 21
18.68548
  0
LINE
  8
型材断面
  6
CONTINUOUS
 10
-87.362503
 20
46.938248
 11
-116.40623
 21
17.89452
  0
LINE
  8
型材断面
  6
CONTINUOUS
 10
-116.40623
 20
17.89452
 11
-116.40623
 21
48.477855
  0
LINE
  8
型材断面
  6
CONTINUOUS
 10
-113.151673
 20
23.735787
 11
-113.151673
 21
48.477855
  0
LINE
  8
型材断面
  6
CONTINUOUS
 10
-113.198812
 20
23.68865
 11
-113.198812
 21
48.477855
  0
LINE
  8
型材断面
  6
CONTINUOUS
 10
-113.046225
 20
23.841235
 11
-113.046225
 21
48.477855
  0
LINE
  8
型材断面
  6
CONTINUOUS
 10
-112.896225
 20
23.991235
 11
-112.896225
 21
48.477855
  0
LINE
  8
型材断面
  6
CONTINUOUS
 10
-116.40623
 20
17.89452
 11
-72.48957
 21
17.89452
  0
LINE
  8
型材断面
  6
CONTINUOUS
 10
-110.612103
 20
21.10194
 11
-73.73957
 21
21.10194
  0
LINE
  8
型材断面
  6
CONTINUOUS
 10
-110.564963
 20
21.14908
 11
-73.73957
 21
21.14908
  0
LINE
  8
型材断面
  6
CONTINUOUS
 10
-110.459515
 20
21.254525
 11
-73.73957
 21
21.254525
  0
LINE
  8
型材断面
  6
CONTINUOUS
 10
-110.309515
 20
21.404525
 11
-73.73957
 21
21.404525
  0
LINE
  8
型材断面
  6
CONTINUOUS
 10
-57.616637
 20
46.938248
 11
-57.616637
 21
47.875367
  0
LINE
  8
型材断面
  6
CONTINUOUS
 10
-57.616637
 20
46.938248
 11
-58.553758
 21
46.938248
  0
LINE
  8
型材断面
  6
CONTINUOUS
 10
-58.219125
 20
48.477855
 11
-57.616637
 21
47.875367
  0
LINE
  8
型材断面
  6
CONTINUOUS
 10
-57.616637
 20
46.938248
 11
-59.156245
 21
48.477855
  0
LINE
  8
型材断面
  6
CONTINUOUS
 10
-58.553758
 20
46.938248
 11
-58.898355
 21
47.282845
  0
LINE
  8
型材断面
  6
CONTINUOUS
 10
-58.898355
 20
47.282845
 11
-59.156245
 21
48.477855
  0
LINE
  8
型材断面
  6
CONTINUOUS
 10
-60.917175
 20
47.362808
 11
-72.48957
 21
47.362808
  0
LINE
  8
型材断面
  6
CONTINUOUS
 10
-58.407595
 20
46.938248
 11
-29.363868
 21
17.89452
  0
LINE
  8
型材断面
  6
CONTINUOUS
 10
-57.616637
 20
47.729205
 11
-28.57291
 21
18.68548
  0
LINE
  8
型材断面
  6
CONTINUOUS
 10
-57.616637
 20
46.938248
 11
-28.57291
 21
17.89452
  0
LINE
  8
型材断面
  6
CONTINUOUS
 10
-28.57291
 20
17.89452
 11
-28.57291
 21
48.477855
  0
LINE
  8
型材断面
  6
CONTINUOUS
 10
-31.827467
 20
23.735787
 11
-31.827467
 21
48.477855
  0
LINE
  8
型材断面
  6
CONTINUOUS
 10
-31.780328
 20
23.68865
 11
-31.780328
 21
48.477855
  0
LINE
  8
型材断面
  6
CONTINUOUS
 10
-31.932915
 20
23.841235
 11
-31.932915
 21
48.477855
  0
LINE
  8
型材断面
  6
CONTINUOUS
 10
-32.082915
 20
23.991235
 11
-32.082915
 21
48.477855
  0
LINE
  8
型材断面
  6
CONTINUOUS
 10
-28.57291
 20
17.89452
 11
-72.48957
 21
17.89452
  0
LINE
  8
型材断面
  6
CONTINUOUS
 10
-34.367037
 20
21.10194
 11
-71.23957
 21
21.10194
  0
LINE
  8
型材断面
  6
CONTINUOUS
 10
-34.414178
 20
21.14908
 11
-71.23957
 21
21.14908
  0
LINE
  8
型材断面
  6
CONTINUOUS
 10
-34.519625
 20
21.254525
 11
-71.23957
 21
21.254525
  0
LINE
  8
型材断面
  6
CONTINUOUS
 10
-34.669625
 20
21.404525
 11
-71.23957
 21
21.404525
  0
LINE
  8
型材断面
  6
CONTINUOUS
 10
-57.616637
 20
50.017462
 11
-57.616637
 21
49.080343
  0
LINE
  8
型材断面
  6
CONTINUOUS
 10
-57.616637
 20
50.017462
 11
-58.553758
 21
50.017462
  0
LINE
  8
型材断面
  6
CONTINUOUS
 10
-58.219125
 20
48.477855
 11
-57.616637
 21
49.080343
  0
LINE
  8
型材断面
  6
CONTINUOUS
 10
-57.616637
 20
50.017462
 11
-59.156245
 21
48.477855
  0
LINE
  8
型材断面
  6
CONTINUOUS
 10
-58.553758
 20
50.017462
 11
-58.898355
 21
49.672865
  0
LINE
  8
型材断面
  6
CONTINUOUS
 10
-58.898355
 20
49.672865
 11
-59.156245
 21
48.477855
  0
LINE
  8
型材断面
  6
CONTINUOUS
 10
-60.917175
 20
49.592902
 11
-72.48957
 21
49.592902
  0
LINE
  8
型材断面
  6
CONTINUOUS
 10
-58.407595
 20
50.017462
 11
-29.363868
 21
79.06119
  0
LINE
  8
型材断面
  6
CONTINUOUS
 10
-57.616637
 20
49.226505
 11
-28.57291
 21
78.27023
  0
LINE
  8
型材断面
  6
CONTINUOUS
 10
-57.616637
 20
50.017462
 11
-28.57291
 21
79.06119
  0
LINE
  8
型材断面
  6
CONTINUOUS
 10
-28.57291
 20
79.06119
 11
-28.57291
 21
48.477855
  0
LINE
  8
型材断面
  6
CONTINUOUS
 10
-31.827467
 20
73.219923
 11
-31.827467
 21
48.477855
  0
LINE
  8
型材断面
  6
CONTINUOUS
 10
-31.780328
 20
73.26706
 11
-31.780328
 21
48.477855
  0
LINE
  8
型材断面
  6
CONTINUOUS
 10
-31.932915
 20
73.114475
 11
-31.932915
 21
48.477855
  0
LINE
  8
型材断面
  6
CONTINUOUS
 10
-32.082915
 20
72.964475
 11
-32.082915
 21
48.477855
  0
LINE
  8
型材断面
  6
CONTINUOUS
 10
-28.57291
 20
79.06119
 11
-72.48957
 21
79.06119
  0
LINE
  8
型材断面
  6
CONTINUOUS
 10
-34.367037
 20
75.85377
 11
-71.23957
 21
75.85377
  0
LINE
  8
型材断面
  6
CONTINUOUS
 10
-34.414178
 20
75.80663
 11
-71.23957
 21
75.80663
  0
LINE
  8
型材断面
  6
CONTINUOUS
 10
-34.519625
 20
75.701185
 11
-71.23957
 21
75.701185
  0
LINE
  8
型材断面
  6
CONTINUOUS
 10
-34.669625
 20
75.551185
 11
-71.23957
 21
75.551185
  0
LINE
  8
型材断面
  6
CONTINUOUS
 10
-87.362503
 20
50.017462
 11
-87.362503
 21
49.080343
  0
LINE
  8
型材断面
  6
CONTINUOUS
 10
-87.362503
 20
50.017462
 11
-86.425382
 21
50.017462
  0
LINE
  8
型材断面
  6
CONTINUOUS
 10
-86.760015
 20
48.477855
 11
-87.362503
 21
49.080343
  0
LINE
  8
型材断面
  6
CONTINUOUS
 10
-87.362503
 20
50.017462
 11
-85.822895
 21
48.477855
  0
LINE
  8
型材断面
  6
CONTINUOUS
 10
-86.425382
 20
50.017462
 11
-86.080785
 21
49.672865
  0
LINE
  8
型材断面
  6
CONTINUOUS
 10
-86.080785
 20
49.672865
 11
-85.822895
 21
48.477855
  0
LINE
  8
型材断面
  6
CONTINUOUS
 10
-84.061965
 20
49.592902
 11
-72.48957
 21
49.592902
  0
LINE
  8
型材断面
  6
CONTINUOUS
 10
-86.571545
 20
50.017462
 11
-115.615272
 21
79.06119
  0
LINE
  8
型材断面
  6
CONTINUOUS
 10
-87.362503
 20
49.226505
 11
-116.40623
 21
78.27023
  0
LINE
  8
型材断面
  6
CONTINUOUS
 10
-87.362503
 20
50.017462
 11
-116.40623
 21
79.06119
  0
LINE
  8
型材断面
  6
CONTINUOUS
 10
-116.40623
 20
79.06119
 11
-116.40623
 21
48.477855
  0
LINE
  8
型材断面
  6
CONTINUOUS
 10
-113.151673
 20
73.219923
 11
-113.151673
 21
48.477855
  0
LINE
  8
型材断面
  6
CONTINUOUS
 10
-113.198812
 20
73.26706
 11
-113.198812
 21
48.477855
  0
LINE
  8
型材断面
  6
CONTINUOUS
 10
-113.046225
 20
73.114475
 11
-113.046225
 21
48.477855
  0
LINE
  8
型材断面
  6
CONTINUOUS
 10
-112.896225
 20
72.964475
 11
-112.896225
 21
48.477855
  0
LINE
  8
型材断面
  6
CONTINUOUS
 10
-116.40623
 20
79.06119
 11
-72.48957
 21
79.06119
  0
LINE
  8
型材断面
  6
CONTINUOUS
 10
-110.612103
 20
75.85377
 11
-73.73957
 21
75.85377
  0
LINE
  8
型材断面
  6
CONTINUOUS
 10
-110.564963
 20
75.80663
 11
-73.73957
 21
75.80663
  0
LINE
  8
型材断面
  6
CONTINUOUS
 10
-110.459515
 20
75.701185
 11
-73.73957
 21
75.701185
  0
LINE
  8
型材断面
  6
CONTINUOUS
 10
-110.309515
 20
75.551185
 11
-73.73957
 21
75.551185
  0
LINE
  8
型材断面
  6
CONTINUOUS
 62
    47
 10
-116.406238
 20
-72.22949
 11
-116.406238
 21
-74.362823
  0
LINE
  8
型材断面
  6
CONTINUOUS
 10
-116.406238
 20
-72.22949
 11
-116.465103
 21
-72.170625
  0
LINE
  8
型材断面
  6
CONTINUOUS
 62
    47
 10
-115.83957
 20
-74.362823
 11
-115.83957
 21
-74.87949
  0
LINE
  8
型材断面
  6
CONTINUOUS
 10
-84.062038
 20
-42.644895
 11
-72.48957
 21
-42.644895
  0
LINE
  8
型材断面
  6
CONTINUOUS
 10
-86.088505
 20
-42.707495
 11
-72.48957
 21
-42.707495
  0
LINE
  8
型材断面
  6
CONTINUOUS
 10
-85.8229
 20
-41.528425
 11
-72.48957
 21
-41.528425
  0
LINE
  8
型材断面
  6
CONTINUOUS
 10
-116.465103
 20
-72.170625
 11
-85.8229
 21
-41.528425
  0
LINE
  8
型材断面
  6
CONTINUOUS
 10
-115.68028
 20
-72.22949
 11
-86.49523
 21
-43.04444
  0
LINE
  8
型材断面
  6
CONTINUOUS
 62
    47
 10
-116.406238
 20
-74.362823
 11
-72.48957
 21
-74.362823
  0
LINE
  8
型材断面
  6
CONTINUOUS
 62
    47
 10
-115.83957
 20
-74.87949
 11
-72.48957
 21
-74.87949
  0
LINE
  8
型材断面
  6
CONTINUOUS
 10
-116.406238
 20
-72.22949
 11
-72.48957
 21
-72.22949
  0
LINE
  8
型材断面
  6
CONTINUOUS
 62
    47
 10
-28.572902
 20
-72.22949
 11
-28.572902
 21
-74.362823
  0
LINE
  8
型材断面
  6
CONTINUOUS
 10
-28.572902
 20
-72.22949
 11
-28.514037
 21
-72.170625
  0
LINE
  8
型材断面
  6
CONTINUOUS
 62
    47
 10
-29.13957
 20
-74.362823
 11
-29.13957
 21
-74.87949
  0
LINE
  8
型材断面
  6
CONTINUOUS
 10
-60.917102
 20
-42.644895
 11
-72.48957
 21
-42.644895
  0
LINE
  8
型材断面
  6
CONTINUOUS
 10
-58.890635
 20
-42.707495
 11
-72.48957
 21
-42.707495
  0
LINE
  8
型材断面
  6
CONTINUOUS
 10
-59.15624
 20
-41.528425
 11
-72.48957
 21
-41.528425
  0
LINE
  8
型材断面
  6
CONTINUOUS
 10
-28.514037
 20
-72.170625
 11
-59.15624
 21
-41.528425
  0
LINE
  8
型材断面
  6
CONTINUOUS
 10
-29.29886
 20
-72.22949
 11
-58.48391
 21
-43.04444
  0
LINE
  8
型材断面
  6
CONTINUOUS
 62
    47
 10
-28.572902
 20
-74.362823
 11
-72.48957
 21
-74.362823
  0
LINE
  8
型材断面
  6
CONTINUOUS
 62
    47
 10
-29.13957
 20
-74.87949
 11
-72.48957
 21
-74.87949
  0
LINE
  8
型材断面
  6
CONTINUOUS
 10
-28.572902
 20
-72.22949
 11
-72.48957
 21
-72.22949
  0
LINE
  8
ゴム等
  6
CONTINUOUS
 10
-73.022902
 20
-71.458882
 11
-73.73957
 21
-71.122985
  0
LINE
  8
ゴム等
  6
CONTINUOUS
 10
-86.080785
 20
47.282845
 11
-84.061965
 21
47.282845
  0
LINE
  8
ゴム等
  6
CONTINUOUS
 10
-84.061965
 20
47.282845
 11
-84.061965
 21
48.477855
  0
LINE
  8
ゴム等
  6
CONTINUOUS
 10
-85.58602
 20
46.760315
 11
-73.022902
 21
46.760315
  0
LINE
  8
ゴム等
  6
CONTINUOUS
 10
-85.639678
 20
46.82063
 11
-73.022902
 21
46.82063
  0
LINE
  8
ゴム等
  6
CONTINUOUS
 10
-85.28805
 20
46.42599
 11
-73.73957
 21
46.42599
  0
LINE
  8
ゴム等
  6
CONTINUOUS
 10
54.76141
 20
21.976718
 11
55.097307
 21
20.669552
  0
LINE
  8
ゴム等
  6
CONTINUOUS
 10
55.097307
 20
20.669552
 11
55.149028
 21
20.430372
  0
LINE
  8
ゴム等
  6
CONTINUOUS
 10
55.149028
 20
20.430372
 11
55.867913
 21
18.620478
  0
LINE
  8
ゴム等
  6
CONTINUOUS
 10
55.149028
 20
20.430372
 11
27.101542
 21
48.477855
  0
LINE
  8
ゴム等
  6
CONTINUOUS
 10
55.097307
 20
20.669552
 11
27.289003
 21
48.477855
  0
LINE
  8
ゴム等
  6
CONTINUOUS
 10
54.76141
 20
21.976718
 11
28.26027
 21
48.477855
  0
LINE
  8
ゴム等
  6
CONTINUOUS
 10
54.76141
 20
21.976718
 11
54.76141
 21
48.477855
  0
LINE
  8
ゴム等
  6
CONTINUOUS
 10
55.149028
 20
20.430372
 11
55.149028
 21
48.477855
  0
LINE
  8
ゴム等
  6
CONTINUOUS
 10
55.097307
 20
20.669552
 11
55.097307
 21
48.477855
  0
LINE
  8
ゴム等
  6
CONTINUOUS
 10
54.76141
 20
74.978992
 11
55.097307
 21
76.286158
  0
LINE
  8
ゴム等
  6
CONTINUOUS
 10
55.097307
 20
76.286158
 11
55.149028
 21
76.525338
  0
LINE
  8
ゴム等
  6
CONTINUOUS
 10
55.149028
 20
76.525338
 11
55.867913
 21
78.335232
  0
LINE
  8
ゴム等
  6
CONTINUOUS
 10
55.149028
 20
76.525338
 11
27.101542
 21
48.477855
  0
LINE
  8
ゴム等
  6
CONTINUOUS
 10
55.097307
 20
76.286158
 11
27.289003
 21
48.477855
  0
LINE
  8
ゴム等
  6
CONTINUOUS
 10
54.76141
 20
74.978992
 11
28.26027
 21
48.477855
  0
LINE
  8
ゴム等
  6
CONTINUOUS
 10
54.76141
 20
74.978992
 11
54.76141
 21
48.477855
  0
LINE
  8
ゴム等
  6
CONTINUOUS
 10
55.149028
 20
76.525338
 11
55.149028
 21
48.477855
  0
LINE
  8
ゴム等
  6
CONTINUOUS
 10
55.097307
 20
76.286158
 11
55.097307
 21
48.477855
  0
LINE
  8
ゴム等
  6
CONTINUOUS
 10
-112.35864
 20
19.3554
 11
-113.631297
 21
18.71504
  0
LINE
  8
ゴム等
  6
CONTINUOUS
 10
-113.631297
 20
18.71504
 11
-113.816783
 21
18.599265
  0
LINE
  8
ゴム等
  6
CONTINUOUS
 10
-113.870467
 20
18.589842
 11
-115.615272
 21
17.89452
  0
LINE
  8
ゴム等
  6
CONTINUOUS
 10
-114.94535
 20
21.94211
 11
-115.585713
 21
20.669455
  0
LINE
  8
ゴム等
  6
CONTINUOUS
 10
-115.585713
 20
20.669455
 11
-115.701485
 21
20.48397
  0
LINE
  8
ゴム等
  6
CONTINUOUS
 10
-115.710908
 20
20.430285
 11
-116.40623
 21
18.68548
  0
LINE
  8
ゴム等
  6
CONTINUOUS
 10
-85.28805
 20
46.42599
 11
-112.35864
 21
19.3554
  0
LINE
  8
ゴム等
  6
CONTINUOUS
 10
-85.58602
 20
46.760315
 11
-113.631297
 21
18.71504
  0
LINE
  8
ゴム等
  6
CONTINUOUS
 10
-85.639678
 20
46.82063
 11
-113.870467
 21
18.589842
  0
LINE
  8
ゴム等
  6
CONTINUOUS
 10
-88.409605
 20
48.477855
 11
-114.94535
 21
21.94211
  0
LINE
  8
ゴム等
  6
CONTINUOUS
 10
-87.77731
 20
48.477855
 11
-115.585713
 21
20.669455
  0
LINE
  8
ゴム等
  6
CONTINUOUS
 10
-87.663335
 20
48.477855
 11
-115.710908
 21
20.430285
  0
LINE
  8
ゴム等
  6
CONTINUOUS
 10
-115.710908
 20
20.430285
 11
-115.710908
 21
48.477855
  0
LINE
  8
ゴム等
  6
CONTINUOUS
 10
-115.585713
 20
20.669455
 11
-115.585713
 21
48.477855
  0
LINE
  8
ゴム等
  6
CONTINUOUS
 10
-114.94535
 20
21.94211
 11
-114.94535
 21
48.477855
  0
LINE
  8
ゴム等
  6
CONTINUOUS
 10
-113.631297
 20
18.71504
 11
-72.48957
 21
18.71504
  0
LINE
  8
ゴム等
  6
CONTINUOUS
 10
-113.870467
 20
18.589842
 11
-72.48957
 21
18.589842
  0
LINE
  8
ゴム等
  6
CONTINUOUS
 10
-73.022902
 20
18.71504
 11
-73.73957
 21
19.3554
  0
LINE
  8
ゴム等
  6
CONTINUOUS
 10
-73.73957
 20
46.42599
 11
-73.73957
 21
19.3554
  0
LINE
  8
ゴム等
  6
CONTINUOUS
 10
-73.022902
 20
47.362808
 11
-73.022902
 21
18.71504
  0
LINE
  8
ゴム等
  6
CONTINUOUS
 10
-112.35864
 20
19.3554
 11
-73.73957
 21
19.3554
  0
LINE
  8
ゴム等
  6
CONTINUOUS
 10
-58.898355
 20
47.282845
 11
-60.917175
 21
47.282845
  0
LINE
  8
ゴム等
  6
CONTINUOUS
 10
-60.917175
 20
47.282845
 11
-60.917175
 21
48.477855
  0
LINE
  8
ゴム等
  6
CONTINUOUS
 10
-59.39312
 20
46.760315
 11
-71.956238
 21
46.760315
  0
LINE
  8
ゴム等
  6
CONTINUOUS
 10
-59.339462
 20
46.82063
 11
-71.956238
 21
46.82063
  0
LINE
  8
ゴム等
  6
CONTINUOUS
 10
-59.69109
 20
46.42599
 11
-71.23957
 21
46.42599
  0
LINE
  8
ゴム等
  6
CONTINUOUS
 10
-32.6205
 20
19.3554
 11
-31.347843
 21
18.71504
  0
LINE
  8
ゴム等
  6
CONTINUOUS
 10
-31.347843
 20
18.71504
 11
-31.162357
 21
18.599265
  0
LINE
  8
ゴム等
  6
CONTINUOUS
 10
-31.108673
 20
18.589842
 11
-29.363868
 21
17.89452
  0
LINE
  8
ゴム等
  6
CONTINUOUS
 10
-30.03379
 20
21.94211
 11
-29.393427
 21
20.669455
  0
LINE
  8
ゴム等
  6
CONTINUOUS
 10
-29.393427
 20
20.669455
 11
-29.277655
 21
20.48397
  0
LINE
  8
ゴム等
  6
CONTINUOUS
 10
-29.268232
 20
20.430285
 11
-28.57291
 21
18.68548
  0
LINE
  8
ゴム等
  6
CONTINUOUS
 10
-59.69109
 20
46.42599
 11
-32.6205
 21
19.3554
  0
LINE
  8
ゴム等
  6
CONTINUOUS
 10
-59.39312
 20
46.760315
 11
-31.347843
 21
18.71504
  0
LINE
  8
ゴム等
  6
CONTINUOUS
 10
-59.339462
 20
46.82063
 11
-31.108673
 21
18.589842
  0
LINE
  8
ゴム等
  6
CONTINUOUS
 10
-56.569535
 20
48.477855
 11
-30.03379
 21
21.94211
  0
LINE
  8
ゴム等
  6
CONTINUOUS
 10
-57.20183
 20
48.477855
 11
-29.393427
 21
20.669455
  0
LINE
  8
ゴム等
  6
CONTINUOUS
 10
-57.315805
 20
48.477855
 11
-29.268232
 21
20.430285
  0
LINE
  8
ゴム等
  6
CONTINUOUS
 10
-29.268232
 20
20.430285
 11
-29.268232
 21
48.477855
  0
LINE
  8
ゴム等
  6
CONTINUOUS
 10
-29.393427
 20
20.669455
 11
-29.393427
 21
48.477855
  0
LINE
  8
ゴム等
  6
CONTINUOUS
 10
-30.03379
 20
21.94211
 11
-30.03379
 21
48.477855
  0
LINE
  8
ゴム等
  6
CONTINUOUS
 10
-31.347843
 20
18.71504
 11
-72.48957
 21
18.71504
  0
LINE
  8
ゴム等
  6
CONTINUOUS
 10
-31.108673
 20
18.589842
 11
-72.48957
 21
18.589842
  0
LINE
  8
ゴム等
  6
CONTINUOUS
 10
-71.956238
 20
18.71504
 11
-71.23957
 21
19.3554
  0
LINE
  8
ゴム等
  6
CONTINUOUS
 10
-71.23957
 20
46.42599
 11
-71.23957
 21
19.3554
  0
LINE
  8
ゴム等
  6
CONTINUOUS
 10
-71.956238
 20
47.362808
 11
-71.956238
 21
18.71504
  0
LINE
  8
ゴム等
  6
CONTINUOUS
 10
-32.6205
 20
19.3554
 11
-71.23957
 21
19.3554
  0
LINE
  8
ゴム等
  6
CONTINUOUS
 10
-58.898355
 20
49.672865
 11
-60.917175
 21
49.672865
  0
LINE
  8
ゴム等
  6
CONTINUOUS
 10
-60.917175
 20
49.672865
 11
-60.917175
 21
48.477855
  0
LINE
  8
ゴム等
  6
CONTINUOUS
 10
-59.39312
 20
50.195395
 11
-71.956238
 21
50.195395
  0
LINE
  8
ゴム等
  6
CONTINUOUS
 10
-59.339462
 20
50.13508
 11
-71.956238
 21
50.13508
  0
LINE
  8
ゴム等
  6
CONTINUOUS
 10
-59.69109
 20
50.52972
 11
-71.23957
 21
50.52972
  0
LINE
  8
ゴム等
  6
CONTINUOUS
 10
-32.6205
 20
77.60031
 11
-31.347843
 21
78.24067
  0
LINE
  8
ゴム等
  6
CONTINUOUS
 10
-31.347843
 20
78.24067
 11
-31.162357
 21
78.356445
  0
LINE
  8
ゴム等
  6
CONTINUOUS
 10
-31.108673
 20
78.365868
 11
-29.363868
 21
79.06119
  0
LINE
  8
ゴム等
  6
CONTINUOUS
 10
-30.03379
 20
75.0136
 11
-29.393427
 21
76.286255
  0
LINE
  8
ゴム等
  6
CONTINUOUS
 10
-29.393427
 20
76.286255
 11
-29.277655
 21
76.47174
  0
LINE
  8
ゴム等
  6
CONTINUOUS
 10
-29.268232
 20
76.525425
 11
-28.57291
 21
78.27023
  0
LINE
  8
ゴム等
  6
CONTINUOUS
 10
-59.69109
 20
50.52972
 11
-32.6205
 21
77.60031
  0
LINE
  8
ゴム等
  6
CONTINUOUS
 10
-59.39312
 20
50.195395
 11
-31.347843
 21
78.24067
  0
LINE
  8
ゴム等
  6
CONTINUOUS
 10
-59.339462
 20
50.13508
 11
-31.108673
 21
78.365868
  0
LINE
  8
ゴム等
  6
CONTINUOUS
 10
-56.569535
 20
48.477855
 11
-30.03379
 21
75.0136
  0
LINE
  8
ゴム等
  6
CONTINUOUS
 10
-57.20183
 20
48.477855
 11
-29.393427
 21
76.286255
  0
LINE
  8
ゴム等
  6
CONTINUOUS
 10
-57.315805
 20
48.477855
 11
-29.268232
 21
76.525425
  0
LINE
  8
ゴム等
  6
CONTINUOUS
 10
-29.268232
 20
76.525425
 11
-29.268232
 21
48.477855
  0
LINE
  8
ゴム等
  6
CONTINUOUS
 10
-29.393427
 20
76.286255
 11
-29.393427
 21
48.477855
  0
LINE
  8
ゴム等
  6
CONTINUOUS
 10
-30.03379
 20
75.0136
 11
-30.03379
 21
48.477855
  0
LINE
  8
ゴム等
  6
CONTINUOUS
 10
-31.347843
 20
78.24067
 11
-72.48957
 21
78.24067
  0
LINE
  8
ゴム等
  6
CONTINUOUS
 10
-31.108673
 20
78.365868
 11
-72.48957
 21
78.365868
  0
LINE
  8
ゴム等
  6
CONTINUOUS
 10
-71.956238
 20
78.24067
 11
-71.23957
 21
77.60031
  0
LINE
  8
ゴム等
  6
CONTINUOUS
 10
-71.23957
 20
50.52972
 11
-71.23957
 21
77.60031
  0
LINE
  8
ゴム等
  6
CONTINUOUS
 10
-71.956238
 20
49.592902
 11
-71.956238
 21
78.24067
  0
LINE
  8
ゴム等
  6
CONTINUOUS
 10
-32.6205
 20
77.60031
 11
-71.23957
 21
77.60031
  0
LINE
  8
ゴム等
  6
CONTINUOUS
 10
-86.080785
 20
49.672865
 11
-84.061965
 21
49.672865
  0
LINE
  8
ゴム等
  6
CONTINUOUS
 10
-84.061965
 20
49.672865
 11
-84.061965
 21
48.477855
  0
LINE
  8
ゴム等
  6
CONTINUOUS
 10
-85.58602
 20
50.195395
 11
-73.022902
 21
50.195395
  0
LINE
  8
ゴム等
  6
CONTINUOUS
 10
-85.639678
 20
50.13508
 11
-73.022902
 21
50.13508
  0
LINE
  8
ゴム等
  6
CONTINUOUS
 10
-85.28805
 20
50.52972
 11
-73.73957
 21
50.52972
  0
LINE
  8
ゴム等
  6
CONTINUOUS
 10
-112.35864
 20
77.60031
 11
-113.631297
 21
78.24067
  0
LINE
  8
ゴム等
  6
CONTINUOUS
 10
-113.631297
 20
78.24067
 11
-113.816783
 21
78.356445
  0
LINE
  8
ゴム等
  6
CONTINUOUS
 10
-113.870467
 20
78.365868
 11
-115.615272
 21
79.06119
  0
LINE
  8
ゴム等
  6
CONTINUOUS
 10
-114.94535
 20
75.0136
 11
-115.585713
 21
76.286255
  0
LINE
  8
ゴム等
  6
CONTINUOUS
 10
-115.585713
 20
76.286255
 11
-115.701485
 21
76.47174
  0
LINE
  8
ゴム等
  6
CONTINUOUS
 10
-115.710908
 20
76.525425
 11
-116.40623
 21
78.27023
  0
LINE
  8
ゴム等
  6
CONTINUOUS
 10
-85.28805
 20
50.52972
 11
-112.35864
 21
77.60031
  0
LINE
  8
ゴム等
  6
CONTINUOUS
 10
-85.58602
 20
50.195395
 11
-113.631297
 21
78.24067
  0
LINE
  8
ゴム等
  6
CONTINUOUS
 10
-85.639678
 20
50.13508
 11
-113.870467
 21
78.365868
  0
LINE
  8
ゴム等
  6
CONTINUOUS
 10
-88.409605
 20
48.477855
 11
-114.94535
 21
75.0136
  0
LINE
  8
ゴム等
  6
CONTINUOUS
 10
-87.77731
 20
48.477855
 11
-115.585713
 21
76.286255
  0
LINE
  8
ゴム等
  6
CONTINUOUS
 10
-87.663335
 20
48.477855
 11
-115.710908
 21
76.525425
  0
LINE
  8
ゴム等
  6
CONTINUOUS
 10
-115.710908
 20
76.525425
 11
-115.710908
 21
48.477855
  0
LINE
  8
ゴム等
  6
CONTINUOUS
 10
-115.585713
 20
76.286255
 11
-115.585713
 21
48.477855
  0
LINE
  8
ゴム等
  6
CONTINUOUS
 10
-114.94535
 20
75.0136
 11
-114.94535
 21
48.477855
  0
LINE
  8
ゴム等
  6
CONTINUOUS
 10
-113.631297
 20
78.24067
 11
-72.48957
 21
78.24067
  0
LINE
  8
ゴム等
  6
CONTINUOUS
 10
-113.870467
 20
78.365868
 11
-72.48957
 21
78.365868
  0
LINE
  8
ゴム等
  6
CONTINUOUS
 10
-73.022902
 20
78.24067
 11
-73.73957
 21
77.60031
  0
LINE
  8
ゴム等
  6
CONTINUOUS
 10
-73.73957
 20
50.52972
 11
-73.73957
 21
77.60031
  0
LINE
  8
ゴム等
  6
CONTINUOUS
 10
-73.022902
 20
49.592902
 11
-73.022902
 21
78.24067
  0
LINE
  8
ゴム等
  6
CONTINUOUS
 10
-112.35864
 20
77.60031
 11
-73.73957
 21
77.60031
  0
LINE
  8
ゴム等
  6
CONTINUOUS
 10
-112.324038
 20
-71.122985
 11
-113.631203
 21
-71.458882
  0
LINE
  8
ゴム等
  6
CONTINUOUS
 10
-113.631203
 20
-71.458882
 11
-113.870385
 21
-71.510603
  0
LINE
  8
ゴム等
  6
CONTINUOUS
 10
-113.870385
 20
-71.510603
 11
-115.68028
 21
-72.22949
  0
LINE
  8
ゴム等
  6
CONTINUOUS
 10
-85.728705
 20
-41.410575
 11
-84.062038
 21
-41.410575
  0
LINE
  8
ゴム等
  6
CONTINUOUS
 10
-84.062038
 20
-41.410575
 11
-84.062038
 21
-42.652725
  0
LINE
  8
ゴム等
  6
CONTINUOUS
 10
-85.986595
 20
-42.605585
 11
-84.062038
 21
-42.605585
  0
LINE
  8
ゴム等
  6
CONTINUOUS
 10
-84.062038
 20
-42.652725
 11
-86.033735
 21
-42.652725
  0
LINE
  8
ゴム等
  6
CONTINUOUS
 10
-87.362572
 20
-43.04444
 11
-86.425453
 21
-43.04444
  0
LINE
  8
ゴム等
  6
CONTINUOUS
 10
-87.362572
 20
-43.04444
 11
-85.728705
 21
-41.410575
  0
LINE
  8
ゴム等
  6
CONTINUOUS
 10
-86.425453
 20
-43.04444
 11
-85.986595
 21
-42.605585
  0
LINE
  8
ゴム等
  6
CONTINUOUS
 10
-85.769582
 20
-43.409738
 11
-85.693303
 21
-43.520917
  0
LINE
  8
ゴム等
  6
CONTINUOUS
 10
-85.693303
 20
-43.520917
 11
-85.365925
 21
-44.16481
  0
LINE
  8
ゴム等
  6
CONTINUOUS
 10
-85.769582
 20
-43.409738
 11
-86.13346
 21
-42.75245
  0
LINE
  8
ゴム等
  6
CONTINUOUS
 10
-85.365925
 20
-44.16481
 11
-73.73957
 21
-44.16481
  0
LINE
  8
ゴム等
  6
CONTINUOUS
 10
-85.769582
 20
-43.409738
 11
-73.022902
 21
-43.409738
  0
LINE
  8
ゴム等
  6
CONTINUOUS
 10
-85.693303
 20
-43.520917
 11
-73.022902
 21
-43.520917
  0
LINE
  8
ゴム等
  6
CONTINUOUS
 10
-113.870385
 20
-71.510603
 11
-85.769557
 21
-43.409775
  0
LINE
  8
ゴム等
  6
CONTINUOUS
 10
-113.631203
 20
-71.458882
 11
-85.693278
 21
-43.520953
  0
LINE
  8
ゴム等
  6
CONTINUOUS
 10
-112.324038
 20
-71.122985
 11
-85.365905
 21
-44.164852
  0
LINE
  8
ゴム等
  6
CONTINUOUS
 10
-113.631203
 20
-71.458882
 11
-72.48957
 21
-71.458882
  0
LINE
  8
ゴム等
  6
CONTINUOUS
 10
-113.870385
 20
-71.510603
 11
-72.48957
 21
-71.510603
  0
LINE
  8
ゴム等
  6
CONTINUOUS
 10
-112.324038
 20
-71.122985
 11
-73.73957
 21
-71.122985
  0
LINE
  8
ゴム等
  6
CONTINUOUS
 10
-73.73957
 20
-71.122985
 11
-73.73957
 21
-44.16481
  0
LINE
  8
ゴム等
  6
CONTINUOUS
 10
-73.022902
 20
-71.458882
 11
-73.022902
 21
-42.707495
  0
LINE
  8
ゴム等
  6
CONTINUOUS
 10
-71.956238
 20
-71.458882
 11
-71.23957
 21
-71.122985
  0
LINE
  8
ゴム等
  6
CONTINUOUS
 10
-32.655102
 20
-71.122985
 11
-31.347937
 21
-71.458882
  0
LINE
  8
ゴム等
  6
CONTINUOUS
 10
-31.347937
 20
-71.458882
 11
-31.108755
 21
-71.510603
  0
LINE
  8
ゴム等
  6
CONTINUOUS
 10
-31.108755
 20
-71.510603
 11
-29.29886
 21
-72.22949
  0
LINE
  8
ゴム等
  6
CONTINUOUS
 10
-59.250435
 20
-41.410575
 11
-60.917102
 21
-41.410575
  0
LINE
  8
ゴム等
  6
CONTINUOUS
 10
-60.917102
 20
-41.410575
 11
-60.917102
 21
-42.652725
  0
LINE
  8
ゴム等
  6
CONTINUOUS
 10
-58.992545
 20
-42.605585
 11
-60.917102
 21
-42.605585
  0
LINE
  8
ゴム等
  6
CONTINUOUS
 10
-60.917102
 20
-42.652725
 11
-58.945405
 21
-42.652725
  0
LINE
  8
ゴム等
  6
CONTINUOUS
 10
-57.616568
 20
-43.04444
 11
-58.553687
 21
-43.04444
  0
LINE
  8
ゴム等
  6
CONTINUOUS
 10
-57.616568
 20
-43.04444
 11
-59.250435
 21
-41.410575
  0
LINE
  8
ゴム等
  6
CONTINUOUS
 10
-58.553687
 20
-43.04444
 11
-58.992545
 21
-42.605585
  0
LINE
  8
ゴム等
  6
CONTINUOUS
 10
-59.209558
 20
-43.409738
 11
-59.285837
 21
-43.520917
  0
LINE
  8
ゴム等
  6
CONTINUOUS
 10
-59.285837
 20
-43.520917
 11
-59.613215
 21
-44.16481
  0
LINE
  8
ゴム等
  6
CONTINUOUS
 10
-59.209558
 20
-43.409738
 11
-58.84568
 21
-42.75245
  0
LINE
  8
ゴム等
  6
CONTINUOUS
 10
-59.613215
 20
-44.16481
 11
-71.23957
 21
-44.16481
  0
LINE
  8
ゴム等
  6
CONTINUOUS
 10
-59.209558
 20
-43.409738
 11
-71.956238
 21
-43.409738
  0
LINE
  8
ゴム等
  6
CONTINUOUS
 10
-59.285837
 20
-43.520917
 11
-71.956238
 21
-43.520917
  0
LINE
  8
ゴム等
  6
CONTINUOUS
 10
-31.108755
 20
-71.510603
 11
-59.209583
 21
-43.409775
  0
LINE
  8
ゴム等
  6
CONTINUOUS
 10
-31.347937
 20
-71.458882
 11
-59.285862
 21
-43.520953
  0
LINE
  8
ゴム等
  6
CONTINUOUS
 10
-32.655102
 20
-71.122985
 11
-59.613235
 21
-44.164852
  0
LINE
  8
ゴム等
  6
CONTINUOUS
 10
-31.347937
 20
-71.458882
 11
-72.48957
 21
-71.458882
  0
LINE
  8
ゴム等
  6
CONTINUOUS
 10
-31.108755
 20
-71.510603
 11
-72.48957
 21
-71.510603
  0
LINE
  8
ゴム等
  6
CONTINUOUS
 10
-32.655102
 20
-71.122985
 11
-71.23957
 21
-71.122985
  0
LINE
  8
ゴム等
  6
CONTINUOUS
 10
-71.23957
 20
-71.122985
 11
-71.23957
 21
-44.16481
  0
LINE
  8
ゴム等
  6
CONTINUOUS
 10
-71.956238
 20
-71.458882
 11
-71.956238
 21
-42.707495
  0
TEXT
  7
TextStyle03
  8
文字
  6
CONTINUOUS
 10
-137.55
 20
96.5
  1
アンカーピッチ
 40
3.0
 72
     5
 11
-114.3
 21
96.5
  0
TEXT
  7
TextStyle03
  8
文字
  6
CONTINUOUS
 10
-136.975
 20
-4.725
  1
アンカーピッチ
 40
3.0
 50
90.0
 72
     5
 11
-136.975
 21
18.525
  0
TEXT
  7
TextStyle03
  8
文字
  6
CONTINUOUS
 10
-21.6
 20
0.175
  1
は排水穴位置を示す
 40
3.0
 72
     5
 11
8.4
 21
0.175
  0
TEXT
  7
TextStyle03
  8
文字
  6
CONTINUOUS
 10
156.3
 20
54.1
  1
×　右２枚
 40
4.0
 72
     5
 11
178.3
 21
54.1
  0
TEXT
  7
TextStyle03
  8
文字
  6
CONTINUOUS
 10
156.3
 20
49.6
  1
×　左２枚
 40
4.0
 72
     5
 11
178.3
 21
49.6
  0
TEXT
  7
TextStyle03
  8
文字
  6
CONTINUOUS
 10
156.3
 20
-8.05
  1
×　２枚
 40
4.0
 72
     5
 11
173.8
 21
-8.05
  0
TEXT
  7
TextStyle03
  8
文字
  6
CONTINUOUS
 10
60.1
 20
120.0
  1
シリーズ：ＤＦＹＫ
 40
5.0
 72
     5
 11
110.1
 21
120.0
  0
TEXT
  7
TextStyle03
  8
文字
  6
CONTINUOUS
 10
60.1
 20
114.375
  1
　　　　　山型四角錘（固定）1600×2400タイプ
 40
5.0
 72
     5
 11
183.225
 21
114.375
  0
TEXT
  7
TextStyle03
  8
文字
  6
CONTINUOUS
 10
60.1
 20
108.75
  1
図面名　：外観姿図
 40
5.0
 72
     5
 11
110.1
 21
108.75
  0
TEXT
  7
TextStyle03
  8
文字
  6
CONTINUOUS
 10
60.1
 20
103.125
  1

 40
5.0
 41
1.125
  0
TEXT
  7
TextStyle03
  8
文字
  6
CONTINUOUS
 10
60.1
 20
97.5
  1
ＮＳコード：ＮＳ４ＹＫ
 40
5.0
 72
     5
 11
121.35
 21
97.5
  0
INSERT
  2
*DIM_0002
  8
寸法
  6
CONTINUOUS
 10
0.0
 20
0.0
  0
INSERT
  2
*DIM_0003
  8
寸法
  6
CONTINUOUS
 10
0.0
 20
0.0
  0
LINE
  8
寸法
  6
CONTINUOUS
 10
-47.48957
 20
17.611188
 11
-46.113937
 21
15.228522
  0
LINE
  8
寸法
  6
CONTINUOUS
 10
-47.48957
 20
17.611188
 11
-48.865203
 21
15.228522
  0
LINE
  8
寸法
  6
CONTINUOUS
 10
-48.865203
 20
15.228522
 11
-46.113937
 21
15.228522
  0
LINE
  8
寸法
  6
CONTINUOUS
 10
-97.48957
 20
17.611188
 11
-98.865203
 21
15.228522
  0
LINE
  8
寸法
  6
CONTINUOUS
 10
-97.48957
 20
17.611188
 11
-96.113937
 21
15.228522
  0
LINE
  8
寸法
  6
CONTINUOUS
 10
-96.113937
 20
15.228522
 11
-98.865203
 21
15.228522
  0
INSERT
  2
*DIM_0004
  8
寸法
  6
CONTINUOUS
 10
0.0
 20
0.0
  0
LINE
  8
寸法
  6
CONTINUOUS
 10
-116.689563
 20
48.477855
 11
-119.072228
 21
47.102223
  0
LINE
  8
寸法
  6
CONTINUOUS
 10
-116.689563
 20
48.477855
 11
-119.072228
 21
49.853487
  0
LINE
  8
寸法
  6
CONTINUOUS
 10
-119.072228
 20
49.853487
 11
-119.072228
 21
47.102223
  0
LINE
  8
寸法
  6
CONTINUOUS
 10
-24.65417
 20
2.613172
 11
-23.278538
 21
0.230508
  0
LINE
  8
寸法
  6
CONTINUOUS
 10
-24.65417
 20
2.613172
 11
-26.029803
 21
0.230508
  0
LINE
  8
寸法
  6
CONTINUOUS
 10
-26.029803
 20
0.230508
 11
-23.278538
 21
0.230508
  0
LINE
  8
寸法
  6
CONTINUOUS
 10
-28.003658
 20
-1.421447
 11
10.071655
 21
-1.421447
  0
INSERT
  2
*DIM_0005
  8
寸法
  6
CONTINUOUS
 10
0.0
 20
0.0
  0
INSERT
  2
*DIM_0006
  8
寸法
  6
CONTINUOUS
 10
0.0
 20
0.0
  0
INSERT
  2
*DIM_0007
  8
寸法
  6
CONTINUOUS
 10
0.0
 20
0.0
  0
INSERT
  2
*DIM_0008
  8
寸法
  6
CONTINUOUS
 10
0.0
 20
0.0
  0
INSERT
  2
*DIM_0009
  8
寸法
  6
CONTINUOUS
 10
0.0
 20
0.0
  0
LINE
  8
寸法
  6
CONTINUOUS
 10
-47.48957
 20
79.344522
 11
-46.113937
 21
81.727188
  0
LINE
  8
寸法
  6
CONTINUOUS
 10
-47.48957
 20
79.344522
 11
-48.865203
 21
81.727188
  0
LINE
  8
寸法
  6
CONTINUOUS
 10
-48.865203
 20
81.727188
 11
-46.113937
 21
81.727188
  0
LINE
  8
寸法
  6
CONTINUOUS
 10
-97.48957
 20
79.344522
 11
-98.865203
 21
81.727188
  0
LINE
  8
寸法
  6
CONTINUOUS
 10
-97.48957
 20
79.344522
 11
-96.113937
 21
81.727188
  0
LINE
  8
寸法
  6
CONTINUOUS
 10
-96.113937
 20
81.727188
 11
-98.865203
 21
81.727188
  0
LINE
  8
寸法
  6
CONTINUOUS
 10
-28.289577
 20
48.477855
 11
-25.906912
 21
47.102223
  0
LINE
  8
寸法
  6
CONTINUOUS
 10
-28.289577
 20
48.477855
 11
-25.906912
 21
49.853487
  0
LINE
  8
寸法
  6
CONTINUOUS
 10
-25.906912
 20
49.853487
 11
-25.906912
 21
47.102223
  0
INSERT
  2
*DIM_0010
  8
寸法
  6
CONTINUOUS
 10
0.0
 20
0.0
  0
INSERT
  2
*DIM_0011
  8
寸法
  6
CONTINUOUS
 10
0.0
 20
0.0
  0
INSERT
  2
*DIM_0012
  8
寸法
  6
CONTINUOUS
 10
0.0
 20
0.0
  0
INSERT
  2
*DIM_0013
  8
寸法
  6
CONTINUOUS
 10
0.0
 20
0.0
  0
INSERT
  2
*DIM_0014
  8
寸法
  6
CONTINUOUS
 10
0.0
 20
0.0
  0
INSERT
  2
*DIM_0015
  8
寸法
  6
CONTINUOUS
 10
0.0
 20
0.0
  0
INSERT
  2
*DIM_0016
  8
寸法
  6
CONTINUOUS
 10
0.0
 20
0.0
  0
INSERT
  2
*DIM_0017
  8
寸法
  6
CONTINUOUS
 10
0.0
 20
0.0
  0
INSERT
  2
*DIM_0018
  8
寸法
  6
CONTINUOUS
 10
0.0
 20
0.0
  0
INSERT
  2
*DIM_0019
  8
寸法
  6
CONTINUOUS
 10
0.0
 20
0.0
  0
INSERT
  2
*DIM_0020
  8
寸法
  6
CONTINUOUS
 10
0.0
 20
0.0
  0
INSERT
  2
*DIM_0021
  8
寸法
  6
CONTINUOUS
 10
0.0
 20
0.0
  0
INSERT
  2
*DIM_0022
  8
寸法
  6
CONTINUOUS
 10
0.0
 20
0.0
  0
INSERT
  2
*DIM_0023
  8
寸法
  6
CONTINUOUS
 10
0.0
 20
0.0
  0
INSERT
  2
*DIM_0024
  8
寸法
  6
CONTINUOUS
 10
0.0
 20
0.0
  0
INSERT
  2
*DIM_0025
  8
寸法
  6
CONTINUOUS
 10
0.0
 20
0.0
  0
INSERT
  2
*DIM_0026
  8
寸法
  6
CONTINUOUS
 10
0.0
 20
0.0
  0
INSERT
  2
*DIM_0027
  8
寸法
  6
CONTINUOUS
 10
0.0
 20
0.0
  0
INSERT
  2
*DIM_0028
  8
寸法
  6
CONTINUOUS
 10
0.0
 20
0.0
  0
INSERT
  2
*DIM_0029
  8
寸法
  6
CONTINUOUS
 10
0.0
 20
0.0
  0
LINE
  8
曲げ物
  6
CONTINUOUS
 10
140.226555
 20
74.687803
 11
127.991482
 21
74.687803
  0
LINE
  8
曲げ物
  6
CONTINUOUS
 10
140.226555
 20
74.687803
 11
140.226555
 21
35.27661
  0
LINE
  8
曲げ物
  6
CONTINUOUS
 10
127.991482
 20
74.687803
 11
100.123447
 21
35.27661
  0
LINE
  8
曲げ物
  6
CONTINUOUS
 10
140.226555
 20
35.27661
 11
100.123447
 21
35.27661
  0
LINE
  8
曲げ物
  6
CONTINUOUS
 10
92.65522
 20
-26.373613
 11
147.694785
 21
-26.373613
  0
LINE
  8
曲げ物
  6
CONTINUOUS
 10
92.65522
 20
-26.373613
 11
120.175002
 21
12.54508
  0
LINE
  8
曲げ物
  6
CONTINUOUS
 10
147.694785
 20
-26.373613
 11
120.175002
 21
12.54508
  0
LINE
  8
曲げ物
  6
CONTINUOUS
 10
115.897192
 20
-14.960525
 11
123.758512
 21
-7.099205
  0
LINE
  8
曲げ物
  6
CONTINUOUS
 10
121.58108
 20
-10.603647
 11
119.401635
 21
-12.783093
  0
LINE
  8
曲げ物
  6
CONTINUOUS
 10
120.25407
 20
-9.276638
 11
118.074625
 21
-11.456082
  0
LINE
  8
曲げ物
  6
CONTINUOUS
 10
123.418335
 20
48.861622
 11
131.279655
 21
56.722942
  0
LINE
  8
曲げ物
  6
CONTINUOUS
 10
129.102223
 20
53.2185
 11
126.922777
 21
51.039055
  0
LINE
  8
曲げ物
  6
CONTINUOUS
 10
127.775213
 20
54.54551
 11
125.595767
 21
52.366065
  0
ENDSEC
  0
EOF
