  0
SECTION
  2
HEADER
  9
$EXTMIN
 10
-210.0
 20
-148.5
  9
$EXTMAX
 10
210.0
 20
148.5
  9
$PDMODE
 70
    32
  9
$PDSIZE
 40
0.3
  9
$LTSCALE
 40
10.0
  0
ENDSEC
  0
SECTION
  2
TABLES
  0
TABLE
  2
LTYPE
 70
    15
  0
LTYPE
  2
CONTINUOUS
 70
    64
  3
実線
 72
    65
 73
     0
 40
0.0
  0
LTYPE
  2
DASHED
 70
    64
  3
破線A
 72
    65
 73
     2
 40
0.6
 49
0.4
 49
-0.2
  0
LTYPE
  2
DASHEDX2
 70
    64
  3
破線B
 72
    65
 73
     2
 40
1.3
 49
0.9
 49
-0.4
  0
LTYPE
  2
DASHDOT
 70
    64
  3
１点鎖線A
 72
    65
 73
     4
 40
0.5375
 49
0.375
 49
-0.05
 49
0.0625
 49
-0.05
  0
LTYPE
  2
DASHDOTX2
 70
    64
  3
１点鎖線B
 72
    65
 73
     4
 40
1.075
 49
0.75
 49
-0.1
 49
0.125
 49
-0.1
  0
LTYPE
  2
DIVIDE2
 70
    64
  3
２点鎖線A
 72
    65
 73
     6
 40
0.5125
 49
0.3
 49
-0.0375
 49
0.05
 49
-0.0375
 49
0.05
 49
-0.0375
  0
LTYPE
  2
DIVIDE
 70
    64
  3
２点鎖線B
 72
    65
 73
     6
 40
1.05
 49
0.55
 49
-0.1
 49
0.1
 49
-0.1
 49
0.1
 49
-0.1
  0
LTYPE
  2
DOT
 70
    64
  3
点線A
 72
    65
 73
     2
 40
0.1125
 49
0.0625
 49
-0.05
  0
LTYPE
  2
DOTX2
 70
    64
  3
点線B
 72
    65
 73
     2
 40
0.275
 49
0.15
 49
-0.125
  0
LTYPE
  2
CONTINUOUS
 70
    64
  3
実線
 72
    65
 73
     0
 40
0.0
  0
LTYPE
  2
CONTINUOUS
 70
    64
  3
実線
 72
    65
 73
     0
 40
0.0
  0
LTYPE
  2
CONTINUOUS
 70
    64
  3
実線
 72
    65
 73
     0
 40
0.0
  0
LTYPE
  2
CONTINUOUS
 70
    64
  3
実線
 72
    65
 73
     0
 40
0.0
  0
LTYPE
  2
CONTINUOUS
 70
    64
  3
実線
 72
    65
 73
     0
 40
0.0
  0
LTYPE
  2
CONTINUOUS
 70
    64
  3
実線
 72
    65
 73
     0
 40
0.0
  0
ENDTAB
  0
TABLE
  2
LAYER
 70
    34
  0
LAYER
  2
通り芯
 70
     0
 62
    15
  6
CONTINUOUS
  0
LAYER
  2
補助線
 70
     0
 62
    16
  6
DOT
  0
LAYER
  2
躯体
 70
     0
 62
    31
  6
CONTINUOUS
  0
LAYER
  2
型材
 70
     0
 62
    32
  6
CONTINUOUS
  0
LAYER
  2
型材断面
 70
     0
 62
    47
  6
CONTINUOUS
  0
LAYER
  2
ガラス
 70
     0
 62
    48
  6
CONTINUOUS
  0
LAYER
  2
ゴム等
 70
     0
 62
    63
  6
CONTINUOUS
  0
LAYER
  2
ボルト／ビス
 70
     0
 62
    64
  6
CONTINUOUS
  0
LAYER
  2
文字
 70
     0
 62
    79
  6
CONTINUOUS
  0
LAYER
  2
寸法
 70
     0
 62
    80
  6
CONTINUOUS
  0
LAYER
  2
ﾊｯﾁﾝｸﾞ
 70
     0
 62
    95
  6
CONTINUOUS
  0
LAYER
  2
別途部材
 70
     0
 62
    96
  6
CONTINUOUS
  0
LAYER
  2
曲げ物
 70
     0
 62
   111
  6
CONTINUOUS
  0
LAYER
  2
鉄骨等
 70
     0
 62
   112
  6
CONTINUOUS
  0
LAYER
  2
St
 70
     0
 62
   127
  6
CONTINUOUS
  0
LAYER
  2
その他部品等
 70
     0
 62
   128
  6
CONTINUOUS
  0
LAYER
  2
ｶﾞｽｹｯﾄ
 70
     0
 62
   143
  6
CONTINUOUS
  0
LAYER
  2
ｽｹｯﾁ
 70
     0
 62
    14
  6
CONTINUOUS
  0
LAYER
  2
0
 70
     0
 62
    17
  6
CONTINUOUS
  0
LAYER
  2
1
 70
     0
 62
    30
  6
CONTINUOUS
  0
LAYER
  2
4
 70
     0
 62
    33
  6
CONTINUOUS
  0
LAYER
  2
ﾚｲﾔ3
 70
     0
 62
    46
  6
CONTINUOUS
  0
LAYER
  2
外形線
 70
     0
 62
    49
  6
CONTINUOUS
  0
LAYER
  2
部品
 70
     0
 62
    14
  6
CONTINUOUS
  0
LAYER
  2
サッシ芯
 70
     0
 62
    17
  6
DASHDOTX2
  0
LAYER
  2
寸法線
 70
     0
 62
    62
  6
CONTINUOUS
  0
LAYER
  2
姿図外形線
 70
     0
 62
    65
  6
CONTINUOUS
  0
LAYER
  2
姿補助線
 70
     0
 62
    30
  6
CONTINUOUS
  0
LAYER
  2
透視線
 70
     0
 62
    78
  6
DOT
  0
LAYER
  2
用紙
 70
     0
 62
    81
  6
CONTINUOUS
  0
LAYER
  2
実線図枠
 70
     0
 62
    94
  6
CONTINUOUS
  0
LAYER
  2
補助図枠
 70
     0
 62
    97
  6
CONTINUOUS
  0
LAYER
  2
建具記号
 70
     0
 62
   110
  6
CONTINUOUS
  0
LAYER
  2
補助文字
 70
     0
 62
   113
  6
CONTINUOUS
  0
ENDTAB
  0
TABLE
  2
STYLE
 70
    10
  0
STYLE
  2
STANDARD
 70
     0
 40
1.0
 41
1.0
 42
1.0
 50
0.0
 71
     0
  3
TXT
  4
BIGFONT
  0
STYLE
  2
TATE
 70
     4
 40
1.0
 41
1.0
 42
1.0
 50
0.0
 71
     0
  3
TXT
  4
BIGFONT
  0
STYLE
  2
TextStyle03
 70
     0
 40
1.0
 41
1.0
 42
1.0
 50
0.0
 71
     0
  3
MONOTXT
  4
BIGFONT
  0
STYLE
  2
TextStyle04
 70
     0
 40
1.0
 41
1.0
 42
1.0
 50
0.0
 71
     0
  3
MONOTXT
  4
BIGFONT
  0
STYLE
  2
TextStyle05
 70
     0
 40
1.0
 41
1.0
 42
1.0
 50
0.0
 71
     0
  3
MONOTXT
  4
BIGFONT
  0
STYLE
  2
TextStyle06
 70
     0
 40
1.0
 41
1.0
 42
1.0
 50
0.0
 71
     0
  3
MONOTXT
  4
BIGFONT
  0
STYLE
  2
TextStyle07
 70
     0
 40
1.0
 41
1.0
 42
1.0
 50
0.0
 71
     0
  3
MONOTXT
  4
BIGFONT
  0
STYLE
  2
TextStyle08
 70
     0
 40
1.0
 41
1.0
 42
1.0
 50
0.0
 71
     0
  3
MONOTXT
  4
BIGFONT
  0
STYLE
  2
TextStyle09
 70
     0
 40
1.0
 41
1.0
 42
1.0
 50
0.0
 71
     0
  3
MONOTXT
  4
BIGFONT
  0
STYLE
  2
TextStyle10
 70
     0
 40
1.0
 41
1.0
 42
1.0
 50
0.0
 71
     0
  3
MONOTXT
  4
BIGFONT
  0
ENDTAB
  0
ENDSEC
  0
SECTION
  2
BLOCKS
  0
BLOCK
  2
*GRP_0001
 70
    65
 10
0.0
 20
0.0
  0
LINE
  8
型材断面
  6
CONTINUOUS
 10
195.0
 20
133.5
 11
195.0
 21
-133.5
  0
LINE
  8
型材断面
  6
CONTINUOUS
 10
195.0
 20
-133.5
 11
-185.0
 21
-133.5
  0
LINE
  8
型材断面
  6
CONTINUOUS
 10
-185.0
 20
-133.5
 11
-185.0
 21
133.5
  0
LINE
  8
型材断面
  6
CONTINUOUS
 10
195.0
 20
133.5
 11
-185.0
 21
133.5
  0
LINE
  8
型材断面
  6
CONTINUOUS
 10
145.0
 20
-133.5
 11
145.0
 21
-118.5
  0
LINE
  8
型材断面
  6
CONTINUOUS
 10
195.0
 20
-118.5
 11
145.0
 21
-118.5
  0
ENDBLK
  0
BLOCK
  2
*DIM_0002
 70
    65
 10
0.0
 20
0.0
  0
LINE
  8
寸法
  6
BYBLOCK
 62
     0
 10
-32.48957
 20
-22.481818
 11
-32.48957
 21
-24.875757
  0
LINE
  8
寸法
  6
BYBLOCK
 62
     0
 10
-112.48957
 20
-24.875757
 11
-32.48957
 21
-24.875757
  0
POINT
  8
寸法
 62
     0
 10
-32.48957
 20
-24.875757
  0
TEXT
  7
TextStyle03
  8
寸法
  6
CONTINUOUS
 62
     0
 10
-84.21875
 20
-24.525
  1
呼称寸法＝2400
 40
3.0
 72
     5
 11
-60.78125
 21
-24.525
  0
ENDBLK
  0
BLOCK
  2
*DIM_0003
 70
    65
 10
0.0
 20
0.0
  0
LINE
  8
寸法
  6
BYBLOCK
 62
     0
 10
-97.48957
 20
12.228522
 11
-97.48957
 21
6.775155
  0
LINE
  8
寸法
  6
BYBLOCK
 62
     0
 10
-47.48957
 20
12.228522
 11
-47.48957
 21
6.775155
  0
LINE
  8
寸法
  6
BYBLOCK
 62
     0
 10
-97.48957
 20
6.775155
 11
-47.48957
 21
6.775155
  0
POINT
  8
寸法
 62
     0
 10
-97.48957
 20
6.775155
  0
POINT
  8
寸法
 62
     0
 10
-47.48957
 20
6.775155
  0
TEXT
  7
TextStyle03
  8
寸法
  6
CONTINUOUS
 62
     0
 10
-75.80625
 20
7.15
  1
1500
 40
3.0
 72
     5
 11
-69.24375
 21
7.15
  0
ENDBLK
  0
BLOCK
  2
*DIM_0004
 70
    65
 10
0.0
 20
0.0
  0
LINE
  8
寸法
  6
BYBLOCK
 62
     0
 10
15.81096
 20
21.811188
 11
15.81096
 21
17.89452
  0
POINT
  8
寸法
 62
     0
 10
15.81096
 20
21.811188
  0
POINT
  8
寸法
 62
     0
 10
15.81096
 20
17.89452
  0
TEXT
  7
TextStyle03
  8
寸法
  6
CONTINUOUS
 62
     0
 10
15.425
 20
7.3
  1
117.5
 40
3.0
 50
90.0
 72
     5
 11
15.425
 21
15.55
  0
ENDBLK
  0
BLOCK
  2
*DIM_0005
 70
    65
 10
0.0
 20
0.0
  0
LINE
  8
寸法
  6
BYBLOCK
 62
     0
 10
58.001245
 20
14.89452
 11
58.001245
 21
-1.533403
  0
LINE
  8
寸法
  6
BYBLOCK
 62
     0
 10
55.867913
 20
14.89452
 11
55.867913
 21
-1.533403
  0
LINE
  8
寸法
  6
BYBLOCK
 62
     0
 10
58.001245
 20
-1.533403
 11
55.867913
 21
-1.533403
  0
POINT
  8
寸法
 62
     0
 10
58.001245
 20
-1.533403
  0
POINT
  8
寸法
 62
     0
 10
55.867913
 20
-1.533403
  0
TEXT
  7
TextStyle03
  8
寸法
  6
CONTINUOUS
 62
     0
 10
58.70625
 20
-1.175
  1
64
 40
3.0
 72
     5
 11
61.89375
 21
-1.175
  0
ENDBLK
  0
BLOCK
  2
*DIM_0006
 70
    65
 10
0.0
 20
0.0
  0
LINE
  8
寸法
  6
BYBLOCK
 62
     0
 10
-116.406238
 20
-69.22949
 11
-116.406238
 21
-19.064915
  0
LINE
  8
寸法
  6
BYBLOCK
 62
     0
 10
-28.572902
 20
-69.22949
 11
-28.572902
 21
-19.064915
  0
LINE
  8
寸法
  6
BYBLOCK
 62
     0
 10
-116.406238
 20
-19.064915
 11
-28.572902
 21
-19.064915
  0
POINT
  8
寸法
 62
     0
 10
-116.406238
 20
-19.064915
  0
POINT
  8
寸法
 62
     0
 10
-28.572902
 20
-19.064915
  0
TEXT
  7
TextStyle03
  8
寸法
  6
CONTINUOUS
 62
     0
 10
-75.78125
 20
-18.7
  1
2635
 40
3.0
 72
     5
 11
-69.21875
 21
-18.7
  0
ENDBLK
  0
BLOCK
  2
*DIM_0007
 70
    65
 10
0.0
 20
0.0
  0
LINE
  8
寸法
  6
BYBLOCK
 62
     0
 10
-32.48957
 20
-24.875757
 11
-28.572902
 21
-24.875757
  0
POINT
  8
寸法
 62
     0
 10
-32.48957
 20
-24.875757
  0
POINT
  8
寸法
 62
     0
 10
-28.572902
 20
-24.875757
  0
TEXT
  7
TextStyle03
  8
寸法
  6
CONTINUOUS
 62
     0
 10
-26.25
 20
-24.525
  1
117.5
 40
3.0
 72
     5
 11
-18.0
 21
-24.525
  0
ENDBLK
  0
BLOCK
  2
*DIM_0008
 70
    65
 10
0.0
 20
0.0
  0
LINE
  8
寸法
  6
BYBLOCK
 62
     0
 10
-112.48957
 20
-24.875757
 11
-116.406238
 21
-24.875757
  0
POINT
  8
寸法
 62
     0
 10
-112.48957
 20
-24.875757
  0
POINT
  8
寸法
 62
     0
 10
-116.406238
 20
-24.875757
  0
TEXT
  7
TextStyle03
  8
寸法
  6
CONTINUOUS
 62
     0
 10
-127.0
 20
-24.525
  1
117.5
 40
3.0
 72
     5
 11
-118.75
 21
-24.525
  0
ENDBLK
  0
BLOCK
  2
*DIM_0009
 70
    65
 10
0.0
 20
0.0
  0
LINE
  8
寸法
  6
BYBLOCK
 62
     0
 10
-25.572902
 20
-74.362823
 11
-5.69874
 21
-74.362823
  0
LINE
  8
寸法
  6
BYBLOCK
 62
     0
 10
-25.572902
 20
-72.22949
 11
-5.69874
 21
-72.22949
  0
LINE
  8
寸法
  6
BYBLOCK
 62
     0
 10
-5.69874
 20
-74.362823
 11
-5.69874
 21
-72.22949
  0
POINT
  8
寸法
 62
     0
 10
-5.69874
 20
-74.362823
  0
POINT
  8
寸法
 62
     0
 10
-5.69874
 20
-72.22949
  0
TEXT
  7
TextStyle03
  8
寸法
  6
CONTINUOUS
 62
     0
 10
-6.075
 20
-78.26875
  1
64
 40
3.0
 50
90.0
 72
     5
 11
-6.075
 21
-75.08125
  0
ENDBLK
  0
BLOCK
  2
*DIM_0010
 70
    65
 10
0.0
 20
0.0
  0
LINE
  8
寸法
  6
BYBLOCK
 62
     0
 10
52.867913
 20
17.89452
 11
10.331302
 21
17.89452
  0
LINE
  8
寸法
  6
BYBLOCK
 62
     0
 10
52.867913
 20
69.06119
 11
10.331302
 21
69.06119
  0
LINE
  8
寸法
  6
BYBLOCK
 62
     0
 10
10.331302
 20
17.89452
 11
10.331302
 21
69.06119
  0
POINT
  8
寸法
 62
     0
 10
10.331302
 20
17.89452
  0
POINT
  8
寸法
 62
     0
 10
10.331302
 20
69.06119
  0
TEXT
  7
TextStyle03
  8
寸法
  6
CONTINUOUS
 62
     0
 10
9.95
 20
40.19375
  1
1535
 40
3.0
 50
90.0
 72
     5
 11
9.95
 21
46.75625
  0
ENDBLK
  0
BLOCK
  2
*DIM_0011
 70
    65
 10
0.0
 20
0.0
  0
LINE
  8
寸法
  6
BYBLOCK
 62
     0
 10
15.81096
 20
21.811188
 11
15.81096
 21
65.14452
  0
POINT
  8
寸法
 62
     0
 10
15.81096
 20
21.811188
  0
POINT
  8
寸法
 62
     0
 10
15.81096
 20
65.14452
  0
TEXT
  7
TextStyle03
  8
寸法
  6
CONTINUOUS
 62
     0
 10
15.425
 20
31.75625
  1
呼称寸法＝1300
 40
3.0
 50
90.0
 72
     5
 11
15.425
 21
55.19375
  0
ENDBLK
  0
BLOCK
  2
*DIM_0012
 70
    65
 10
0.0
 20
0.0
  0
LINE
  8
寸法
  6
BYBLOCK
 62
     0
 10
15.81096
 20
65.14452
 11
15.81096
 21
69.06119
  0
POINT
  8
寸法
 62
     0
 10
15.81096
 20
65.14452
  0
POINT
  8
寸法
 62
     0
 10
15.81096
 20
69.06119
  0
TEXT
  7
TextStyle03
  8
寸法
  6
CONTINUOUS
 62
     0
 10
15.425
 20
71.4
  1
117.5
 40
3.0
 50
90.0
 72
     5
 11
15.425
 21
79.65
  0
ENDBLK
  0
BLOCK
  2
*DIM_0013
 70
    65
 10
0.0
 20
0.0
  0
LINE
  8
寸法
  6
BYBLOCK
 62
     0
 10
30.166848
 20
40.477855
 11
30.166848
 21
-1.533403
  0
LINE
  8
寸法
  6
BYBLOCK
 62
     0
 10
55.867913
 20
-1.533403
 11
30.166848
 21
-1.533403
  0
POINT
  8
寸法
 62
     0
 10
55.867913
 20
-1.533403
  0
POINT
  8
寸法
 62
     0
 10
30.166848
 20
-1.533403
  0
TEXT
  7
TextStyle03
  8
寸法
  6
CONTINUOUS
 62
     0
 10
40.5625
 20
-1.175
  1
771
 40
3.0
 72
     5
 11
45.4375
 21
-1.175
  0
ENDBLK
  0
BLOCK
  2
*DIM_0014
 70
    65
 10
0.0
 20
0.0
  0
LINE
  8
寸法
  6
BYBLOCK
 62
     0
 10
-51.15624
 20
-46.528425
 11
-5.69874
 21
-46.528425
  0
LINE
  8
寸法
  6
BYBLOCK
 62
     0
 10
-5.69874
 20
-72.22949
 11
-5.69874
 21
-46.528425
  0
POINT
  8
寸法
 62
     0
 10
-5.69874
 20
-72.22949
  0
POINT
  8
寸法
 62
     0
 10
-5.69874
 20
-46.528425
  0
TEXT
  7
TextStyle03
  8
寸法
  6
CONTINUOUS
 62
     0
 10
-6.075
 20
-61.8375
  1
771
 40
3.0
 50
90.0
 72
     5
 11
-6.075
 21
-56.9625
  0
ENDBLK
  0
BLOCK
  2
*DIM_0015
 70
    65
 10
0.0
 20
0.0
  0
LINE
  8
寸法
  6
BYBLOCK
 62
     0
 10
-105.822902
 20
72.522623
 11
-105.822902
 21
83.646105
  0
LINE
  8
寸法
  6
BYBLOCK
 62
     0
 10
-89.156238
 20
72.522623
 11
-89.156238
 21
83.646105
  0
LINE
  8
寸法
  6
BYBLOCK
 62
     0
 10
-105.822902
 20
83.646105
 11
-89.156238
 21
83.646105
  0
POINT
  8
寸法
 62
     0
 10
-105.822902
 20
83.646105
  0
POINT
  8
寸法
 62
     0
 10
-89.156238
 20
83.646105
  0
TEXT
  7
TextStyle03
  8
寸法
  6
CONTINUOUS
 62
     0
 10
-99.9625
 20
84.025
  1
500
 40
3.0
 72
     5
 11
-95.0875
 21
84.025
  0
ENDBLK
  0
BLOCK
  2
*DIM_0016
 70
    65
 10
0.0
 20
0.0
  0
LINE
  8
寸法
  6
BYBLOCK
 62
     0
 10
-72.48957
 20
72.522623
 11
-72.48957
 21
83.646105
  0
LINE
  8
寸法
  6
BYBLOCK
 62
     0
 10
-89.156238
 20
83.646105
 11
-72.48957
 21
83.646105
  0
POINT
  8
寸法
 62
     0
 10
-72.48957
 20
83.646105
  0
TEXT
  7
TextStyle03
  8
寸法
  6
CONTINUOUS
 62
     0
 10
-83.2875
 20
84.025
  1
500
 40
3.0
 72
     5
 11
-78.4125
 21
84.025
  0
ENDBLK
  0
BLOCK
  2
*DIM_0017
 70
    65
 10
0.0
 20
0.0
  0
LINE
  8
寸法
  6
BYBLOCK
 62
     0
 10
-55.822902
 20
72.522623
 11
-55.822902
 21
83.646105
  0
LINE
  8
寸法
  6
BYBLOCK
 62
     0
 10
-72.48957
 20
83.646105
 11
-55.822902
 21
83.646105
  0
POINT
  8
寸法
 62
     0
 10
-55.822902
 20
83.646105
  0
TEXT
  7
TextStyle03
  8
寸法
  6
CONTINUOUS
 62
     0
 10
-66.6125
 20
84.025
  1
500
 40
3.0
 72
     5
 11
-61.7375
 21
84.025
  0
ENDBLK
  0
BLOCK
  2
*DIM_0018
 70
    65
 10
0.0
 20
0.0
  0
LINE
  8
寸法
  6
BYBLOCK
 62
     0
 10
-39.156238
 20
72.522623
 11
-39.156238
 21
83.646105
  0
LINE
  8
寸法
  6
BYBLOCK
 62
     0
 10
-55.822902
 20
83.646105
 11
-39.156238
 21
83.646105
  0
POINT
  8
寸法
 62
     0
 10
-39.156238
 20
83.646105
  0
TEXT
  7
TextStyle03
  8
寸法
  6
CONTINUOUS
 62
     0
 10
-49.9625
 20
84.025
  1
500
 40
3.0
 72
     5
 11
-45.0875
 21
84.025
  0
ENDBLK
  0
BLOCK
  2
*DIM_0019
 70
    65
 10
0.0
 20
0.0
  0
LINE
  8
寸法
  6
BYBLOCK
 62
     0
 10
-120.414735
 20
60.14452
 11
-139.620465
 21
60.14452
  0
LINE
  8
寸法
  6
BYBLOCK
 62
     0
 10
-120.414735
 20
43.477852
 11
-139.620465
 21
43.477852
  0
LINE
  8
寸法
  6
BYBLOCK
 62
     0
 10
-139.620465
 20
60.14452
 11
-139.620465
 21
43.477852
  0
POINT
  8
寸法
 62
     0
 10
-139.620465
 20
60.14452
  0
POINT
  8
寸法
 62
     0
 10
-139.620465
 20
43.477852
  0
TEXT
  7
TextStyle03
  8
寸法
  6
CONTINUOUS
 62
     0
 10
-140.0
 20
49.3625
  1
500
 40
3.0
 50
90.0
 72
     5
 11
-140.0
 21
54.2375
  0
ENDBLK
  0
BLOCK
  2
*DIM_0020
 70
    65
 10
0.0
 20
0.0
  0
LINE
  8
寸法
  6
BYBLOCK
 62
     0
 10
-120.414735
 20
26.811185
 11
-139.620465
 21
26.811185
  0
LINE
  8
寸法
  6
BYBLOCK
 62
     0
 10
-139.620465
 20
43.477852
 11
-139.620465
 21
26.811185
  0
POINT
  8
寸法
 62
     0
 10
-139.620465
 20
26.811185
  0
TEXT
  7
TextStyle03
  8
寸法
  6
CONTINUOUS
 62
     0
 10
-140.0
 20
32.7125
  1
500
 40
3.0
 50
90.0
 72
     5
 11
-140.0
 21
37.5875
  0
ENDBLK
  0
BLOCK
  2
*DIM_0021
 70
    65
 10
0.0
 20
0.0
  0
LINE
  8
寸法
  6
BYBLOCK
 62
     0
 10
93.87498
 20
37.399878
 11
93.87498
 21
32.30856
  0
LINE
  8
寸法
  6
BYBLOCK
 62
     0
 10
133.978088
 20
37.399878
 11
133.978088
 21
32.30856
  0
LINE
  8
寸法
  6
BYBLOCK
 62
     0
 10
93.87498
 20
32.30856
 11
133.978088
 21
32.30856
  0
POINT
  8
寸法
 62
     0
 10
93.87498
 20
32.30856
  0
POINT
  8
寸法
 62
     0
 10
133.978088
 20
32.30856
  0
TEXT
  7
TextStyle03
  8
寸法
  6
CONTINUOUS
 62
     0
 10
108.95625
 20
32.675
  1
1203.1
 40
3.0
 72
     5
 11
118.89375
 21
32.675
  0
ENDBLK
  0
BLOCK
  2
*DIM_0022
 70
    65
 10
0.0
 20
0.0
  0
LINE
  8
寸法
  6
BYBLOCK
 62
     0
 10
116.743015
 20
75.74003
 11
116.743015
 21
79.476483
  0
LINE
  8
寸法
  6
BYBLOCK
 62
     0
 10
133.978088
 20
75.74003
 11
133.978088
 21
79.476483
  0
LINE
  8
寸法
  6
BYBLOCK
 62
     0
 10
116.743015
 20
79.476483
 11
133.978088
 21
79.476483
  0
POINT
  8
寸法
 62
     0
 10
116.743015
 20
79.476483
  0
POINT
  8
寸法
 62
     0
 10
133.978088
 20
79.476483
  0
TEXT
  7
TextStyle03
  8
寸法
  6
CONTINUOUS
 62
     0
 10
121.225
 20
79.85
  1
517.1
 40
3.0
 72
     5
 11
129.475
 21
79.85
  0
ENDBLK
  0
BLOCK
  2
*DIM_0023
 70
    65
 10
0.0
 20
0.0
  0
LINE
  8
寸法
  6
BYBLOCK
 62
     0
 10
90.87498
 20
40.399878
 11
87.020995
 21
40.399878
  0
LINE
  8
寸法
  6
BYBLOCK
 62
     0
 10
113.743015
 20
72.74003
 11
87.020995
 21
72.74003
  0
LINE
  8
寸法
  6
BYBLOCK
 62
     0
 10
87.020995
 20
40.399878
 11
87.020995
 21
72.74003
  0
POINT
  8
寸法
 62
     0
 10
87.020995
 20
40.399878
  0
POINT
  8
寸法
 62
     0
 10
87.020995
 20
72.74003
  0
TEXT
  7
TextStyle03
  8
寸法
  6
CONTINUOUS
 62
     0
 10
86.625
 20
52.425
  1
970.2
 40
3.0
 50
90.0
 72
     5
 11
86.625
 21
60.675
  0
ENDBLK
  0
BLOCK
  2
*DIM_0024
 70
    65
 10
0.0
 20
0.0
  0
ARC
  8
寸法
  6
BYBLOCK
 62
     0
 10
93.87498
 20
40.399878
 40
15.589949
 50
0.0
 51
54.735494
  0
POINT
  8
寸法
 62
     0
 10
102.875867
 20
53.129
  0
POINT
  8
寸法
 62
     0
 10
109.464927
 20
40.399878
  0
TEXT
  7
TextStyle03
  8
寸法
  6
CONTINUOUS
 62
     0
 10
104.995707
 20
53.622225
  1
54.7355
 40
3.0
 50
297.37
 72
     5
 11
110.340125
 21
43.298571
  0
TEXT
  7
TextStyle03
  8
寸法
  6
CONTINUOUS
 62
     0
 10
110.398115
 20
43.15144
  1
ﾟ
 40
3.0
 50
297.37
 41
0.5625
  0
ENDBLK
  0
BLOCK
  2
*DIM_0025
 70
    65
 10
0.0
 20
0.0
  0
LINE
  8
寸法
  6
BYBLOCK
 62
     0
 10
91.40675
 20
-13.769575
 11
91.40675
 21
-19.414923
  0
LINE
  8
寸法
  6
BYBLOCK
 62
     0
 10
136.446315
 20
-13.769575
 11
136.446315
 21
-19.414923
  0
LINE
  8
寸法
  6
BYBLOCK
 62
     0
 10
91.40675
 20
-19.414923
 11
136.446315
 21
-19.414923
  0
POINT
  8
寸法
 62
     0
 10
91.40675
 20
-19.414923
  0
POINT
  8
寸法
 62
     0
 10
136.446315
 20
-19.414923
  0
TEXT
  7
TextStyle03
  8
寸法
  6
CONTINUOUS
 62
     0
 10
108.95625
 20
-19.075
  1
1351.2
 40
3.0
 72
     5
 11
118.89375
 21
-19.075
  0
ENDBLK
  0
BLOCK
  2
*DIM_0026
 70
    65
 10
0.0
 20
0.0
  0
LINE
  8
寸法
  6
BYBLOCK
 62
     0
 10
88.40675
 20
-10.769575
 11
82.29733
 21
-10.769575
  0
LINE
  8
寸法
  6
BYBLOCK
 62
     0
 10
110.926533
 20
21.078077
 11
82.29733
 21
21.078077
  0
LINE
  8
寸法
  6
BYBLOCK
 62
     0
 10
82.29733
 20
-10.769575
 11
82.29733
 21
21.078077
  0
POINT
  8
寸法
 62
     0
 10
82.29733
 20
-10.769575
  0
POINT
  8
寸法
 62
     0
 10
82.29733
 20
21.078077
  0
TEXT
  7
TextStyle03
  8
寸法
  6
CONTINUOUS
 62
     0
 10
81.9
 20
1.0
  1
955.4
 40
3.0
 50
90.0
 72
     5
 11
81.9
 21
9.25
  0
ENDBLK
  0
BLOCK
  2
*DIM_0027
 70
    65
 10
0.0
 20
0.0
  0
ARC
  8
寸法
  6
BYBLOCK
 62
     0
 10
91.40675
 20
-10.769576
 40
12.642277
 50
0.0
 51
54.735499
  0
POINT
  8
寸法
 62
     0
 10
98.705792
 20
-0.447213
  0
POINT
  8
寸法
 62
     0
 10
104.049028
 20
-10.769575
  0
TEXT
  7
TextStyle03
  8
寸法
  6
CONTINUOUS
 62
     0
 10
99.895707
 20
1.097225
  1
54.7355
 40
3.0
 50
297.37
 72
     5
 11
105.240125
 21
-9.226429
  0
TEXT
  7
TextStyle03
  8
寸法
  6
CONTINUOUS
 62
     0
 10
105.323115
 20
-9.39856
  1
ﾟ
 40
3.0
 50
297.37
 41
0.5625
  0
ENDBLK
  0
BLOCK
  2
*DIM_0028
 70
    65
 10
0.0
 20
0.0
  0
ARC
  8
寸法
  6
BYBLOCK
 62
     0
 10
136.446315
 20
-10.769576
 40
12.642277
 50
125.264501
 51
180.0
  0
POINT
  8
寸法
 62
     0
 10
129.147272
 20
-0.447213
  0
POINT
  8
寸法
 62
     0
 10
123.804038
 20
-10.769575
  0
TEXT
  7
TextStyle03
  8
寸法
  6
CONTINUOUS
 62
     0
 10
121.809875
 20
-10.726429
  1
54.7355
 40
3.0
 50
62.63
 72
     5
 11
127.154293
 21
-0.402775
  0
TEXT
  7
TextStyle03
  8
寸法
  6
CONTINUOUS
 62
     0
 10
127.237283
 20
-0.230644
  1
ﾟ
 40
3.0
 50
62.63
 41
0.5625
  0
ENDBLK
  0
ENDSEC
  0
SECTION
  2
ENTITIES
  0
POLYLINE
  8
通り芯
  6
CONTINUOUS
 66
     1
 70
     1
  0
VERTEX
  8
通り芯
 10
-210.0
 20
-148.5
  0
VERTEX
  8
通り芯
 10
210.0
 20
-148.5
  0
VERTEX
  8
通り芯
 10
210.0
 20
148.5
  0
VERTEX
  8
通り芯
 10
-210.0
 20
148.5
  0
SEQEND
  0
INSERT
  2
*GRP_0001
  8
型材断面
  6
CONTINUOUS
 10
0.0
 20
0.0
  0
LINE
  8
型材断面
  6
CONTINUOUS
 62
    47
 10
55.867913
 20
17.89452
 11
58.001245
 21
17.89452
  0
LINE
  8
型材断面
  6
CONTINUOUS
 10
55.867913
 20
17.89452
 11
55.809048
 21
17.835655
  0
LINE
  8
型材断面
  6
CONTINUOUS
 62
    47
 10
58.001245
 20
18.461188
 11
58.517913
 21
18.461188
  0
LINE
  8
型材断面
  6
DASHDOT
 10
-112.48957
 20
21.811188
 11
58.517913
 21
21.811188
  0
LINE
  8
型材断面
  6
CONTINUOUS
 10
-116.40623
 20
17.89452
 11
-72.48957
 21
17.89452
  0
LINE
  8
型材断面
  6
CONTINUOUS
 10
-110.612103
 20
21.10194
 11
-73.73957
 21
21.10194
  0
LINE
  8
型材断面
  6
CONTINUOUS
 10
-110.564963
 20
21.14908
 11
-73.73957
 21
21.14908
  0
LINE
  8
型材断面
  6
CONTINUOUS
 10
-110.459515
 20
21.254525
 11
-73.73957
 21
21.254525
  0
LINE
  8
型材断面
  6
CONTINUOUS
 10
-110.309515
 20
21.404525
 11
-73.73957
 21
21.404525
  0
LINE
  8
型材断面
  6
CONTINUOUS
 62
    47
 10
-116.406238
 20
-72.22949
 11
-116.406238
 21
-74.362823
  0
LINE
  8
型材断面
  6
CONTINUOUS
 10
-116.406238
 20
-72.22949
 11
-116.465103
 21
-72.170625
  0
LINE
  8
型材断面
  6
CONTINUOUS
 62
    47
 10
-115.83957
 20
-74.362823
 11
-115.83957
 21
-74.87949
  0
LINE
  8
型材断面
  6
CONTINUOUS
 62
    47
 10
-116.406238
 20
-74.362823
 11
-72.48957
 21
-74.362823
  0
LINE
  8
型材断面
  6
CONTINUOUS
 62
    47
 10
-115.83957
 20
-74.87949
 11
-72.48957
 21
-74.87949
  0
LINE
  8
型材断面
  6
CONTINUOUS
 10
-116.406238
 20
-72.22949
 11
-72.48957
 21
-72.22949
  0
LINE
  8
型材断面
  6
DASHDOT
 10
-112.48957
 20
43.477855
 11
58.517913
 21
43.477855
  0
LINE
  8
型材断面
  6
DASHDOT
 10
-112.48957
 20
65.14452
 11
58.517913
 21
65.14452
  0
LINE
  8
型材断面
  6
CONTINUOUS
 10
31.682863
 20
41.938245
 11
31.682863
 21
42.875365
  0
LINE
  8
型材断面
  6
CONTINUOUS
 10
31.080375
 20
43.477855
 11
31.682863
 21
42.875365
  0
LINE
  8
型材断面
  6
CONTINUOUS
 10
31.682863
 20
41.938245
 11
30.143255
 21
43.477855
  0
LINE
  8
型材断面
  6
CONTINUOUS
 10
31.682863
 20
45.017465
 11
31.682863
 21
44.080345
  0
LINE
  8
型材断面
  6
CONTINUOUS
 10
31.080375
 20
43.477855
 11
31.682863
 21
44.080345
  0
LINE
  8
型材断面
  6
CONTINUOUS
 10
31.682863
 20
45.017465
 11
30.143255
 21
43.477855
  0
LINE
  8
型材断面
  6
CONTINUOUS
 10
55.809048
 20
17.835655
 11
30.166848
 21
43.477855
  0
LINE
  8
型材断面
  6
CONTINUOUS
 10
55.867913
 20
18.620478
 11
31.682863
 21
42.805525
  0
LINE
  8
型材断面
  6
CONTINUOUS
 10
55.867913
 20
17.89452
 11
55.867913
 21
43.477855
  0
LINE
  8
型材断面
  6
CONTINUOUS
 62
    47
 10
58.001245
 20
17.89452
 11
58.001245
 21
43.477855
  0
LINE
  8
型材断面
  6
CONTINUOUS
 62
    47
 10
58.517913
 20
18.461188
 11
58.517913
 21
43.477855
  0
LINE
  8
型材断面
  6
CONTINUOUS
 62
    47
 10
55.867913
 20
69.06119
 11
58.001245
 21
69.06119
  0
LINE
  8
型材断面
  6
CONTINUOUS
 10
55.867913
 20
69.06119
 11
55.809048
 21
69.120055
  0
LINE
  8
型材断面
  6
CONTINUOUS
 62
    47
 10
58.001245
 20
68.494522
 11
58.517913
 21
68.494522
  0
LINE
  8
型材断面
  6
CONTINUOUS
 10
55.809048
 20
69.120055
 11
30.166848
 21
43.477855
  0
LINE
  8
型材断面
  6
CONTINUOUS
 10
55.867913
 20
68.335232
 11
31.682863
 21
44.150185
  0
LINE
  8
型材断面
  6
CONTINUOUS
 10
55.867913
 20
69.06119
 11
55.867913
 21
43.477855
  0
LINE
  8
型材断面
  6
CONTINUOUS
 62
    47
 10
58.001245
 20
69.06119
 11
58.001245
 21
43.477855
  0
LINE
  8
型材断面
  6
CONTINUOUS
 62
    47
 10
58.517913
 20
68.494522
 11
58.517913
 21
43.477855
  0
LINE
  8
型材断面
  6
CONTINUOUS
 10
-116.40623
 20
17.89452
 11
-116.40623
 21
43.477855
  0
LINE
  8
型材断面
  6
CONTINUOUS
 10
-113.198812
 20
23.68865
 11
-113.198812
 21
43.477855
  0
LINE
  8
型材断面
  6
CONTINUOUS
 10
-113.046225
 20
23.841235
 11
-113.046225
 21
43.477855
  0
LINE
  8
型材断面
  6
CONTINUOUS
 10
-113.151673
 20
23.735787
 11
-113.151673
 21
43.477855
  0
LINE
  8
型材断面
  6
CONTINUOUS
 10
-112.896225
 20
23.991235
 11
-112.896225
 21
43.477855
  0
LINE
  8
型材断面
  6
CONTINUOUS
 10
-92.362503
 20
41.938248
 11
-92.362503
 21
42.875367
  0
LINE
  8
型材断面
  6
CONTINUOUS
 10
-92.362503
 20
41.938248
 11
-91.425382
 21
41.938248
  0
LINE
  8
型材断面
  6
CONTINUOUS
 10
-91.760015
 20
43.477855
 11
-92.362503
 21
42.875367
  0
LINE
  8
型材断面
  6
CONTINUOUS
 10
-92.362503
 20
41.938248
 11
-90.822895
 21
43.477855
  0
LINE
  8
型材断面
  6
CONTINUOUS
 10
-91.425382
 20
41.938248
 11
-91.080785
 21
42.282845
  0
LINE
  8
型材断面
  6
CONTINUOUS
 10
-91.080785
 20
42.282845
 11
-90.822895
 21
43.477855
  0
LINE
  8
型材断面
  6
CONTINUOUS
 10
-115.615272
 20
17.89452
 11
-91.571545
 21
41.938248
  0
LINE
  8
型材断面
  6
CONTINUOUS
 10
-116.40623
 20
18.68548
 11
-92.362503
 21
42.729205
  0
LINE
  8
型材断面
  6
CONTINUOUS
 10
-116.40623
 20
17.89452
 11
-92.362503
 21
41.938248
  0
LINE
  8
型材断面
  6
CONTINUOUS
 10
-89.061965
 20
42.362808
 11
-72.48957
 21
42.362808
  0
LINE
  8
型材断面
  6
CONTINUOUS
 10
-28.57291
 20
17.89452
 11
-72.48957
 21
17.89452
  0
LINE
  8
型材断面
  6
CONTINUOUS
 10
-34.367037
 20
21.10194
 11
-71.23957
 21
21.10194
  0
LINE
  8
型材断面
  6
CONTINUOUS
 10
-34.414178
 20
21.14908
 11
-71.23957
 21
21.14908
  0
LINE
  8
型材断面
  6
CONTINUOUS
 10
-34.519625
 20
21.254525
 11
-71.23957
 21
21.254525
  0
LINE
  8
型材断面
  6
CONTINUOUS
 10
-34.669625
 20
21.404525
 11
-71.23957
 21
21.404525
  0
LINE
  8
型材断面
  6
CONTINUOUS
 10
-28.57291
 20
17.89452
 11
-28.57291
 21
43.477855
  0
LINE
  8
型材断面
  6
CONTINUOUS
 10
-31.780328
 20
23.68865
 11
-31.780328
 21
43.477855
  0
LINE
  8
型材断面
  6
CONTINUOUS
 10
-31.932915
 20
23.841235
 11
-31.932915
 21
43.477855
  0
LINE
  8
型材断面
  6
CONTINUOUS
 10
-31.827467
 20
23.735787
 11
-31.827467
 21
43.477855
  0
LINE
  8
型材断面
  6
CONTINUOUS
 10
-32.082915
 20
23.991235
 11
-32.082915
 21
43.477855
  0
LINE
  8
型材断面
  6
CONTINUOUS
 10
-52.616637
 20
41.938248
 11
-52.616637
 21
42.875367
  0
LINE
  8
型材断面
  6
CONTINUOUS
 10
-52.616637
 20
41.938248
 11
-53.553758
 21
41.938248
  0
LINE
  8
型材断面
  6
CONTINUOUS
 10
-53.219125
 20
43.477855
 11
-52.616637
 21
42.875367
  0
LINE
  8
型材断面
  6
CONTINUOUS
 10
-52.616637
 20
41.938248
 11
-54.156245
 21
43.477855
  0
LINE
  8
型材断面
  6
CONTINUOUS
 10
-53.553758
 20
41.938248
 11
-53.898355
 21
42.282845
  0
LINE
  8
型材断面
  6
CONTINUOUS
 10
-53.898355
 20
42.282845
 11
-54.156245
 21
43.477855
  0
LINE
  8
型材断面
  6
CONTINUOUS
 10
-29.363868
 20
17.89452
 11
-53.407595
 21
41.938248
  0
LINE
  8
型材断面
  6
CONTINUOUS
 10
-28.57291
 20
18.68548
 11
-52.616637
 21
42.729205
  0
LINE
  8
型材断面
  6
CONTINUOUS
 10
-28.57291
 20
17.89452
 11
-52.616637
 21
41.938248
  0
LINE
  8
型材断面
  6
CONTINUOUS
 10
-55.917175
 20
42.362808
 11
-72.48957
 21
42.362808
  0
LINE
  8
型材断面
  6
CONTINUOUS
 10
-116.40623
 20
69.06119
 11
-72.48957
 21
69.06119
  0
LINE
  8
型材断面
  6
CONTINUOUS
 10
-110.612103
 20
65.85377
 11
-73.73957
 21
65.85377
  0
LINE
  8
型材断面
  6
CONTINUOUS
 10
-110.564963
 20
65.80663
 11
-73.73957
 21
65.80663
  0
LINE
  8
型材断面
  6
CONTINUOUS
 10
-110.459515
 20
65.701185
 11
-73.73957
 21
65.701185
  0
LINE
  8
型材断面
  6
CONTINUOUS
 10
-110.309515
 20
65.551185
 11
-73.73957
 21
65.551185
  0
LINE
  8
型材断面
  6
CONTINUOUS
 10
-116.40623
 20
69.06119
 11
-116.40623
 21
43.477855
  0
LINE
  8
型材断面
  6
CONTINUOUS
 10
-113.198812
 20
63.26706
 11
-113.198812
 21
43.477855
  0
LINE
  8
型材断面
  6
CONTINUOUS
 10
-113.046225
 20
63.114475
 11
-113.046225
 21
43.477855
  0
LINE
  8
型材断面
  6
CONTINUOUS
 10
-113.151673
 20
63.219923
 11
-113.151673
 21
43.477855
  0
LINE
  8
型材断面
  6
CONTINUOUS
 10
-112.896225
 20
62.964475
 11
-112.896225
 21
43.477855
  0
LINE
  8
型材断面
  6
CONTINUOUS
 10
-92.362503
 20
45.017462
 11
-92.362503
 21
44.080343
  0
LINE
  8
型材断面
  6
CONTINUOUS
 10
-92.362503
 20
45.017462
 11
-91.425382
 21
45.017462
  0
LINE
  8
型材断面
  6
CONTINUOUS
 10
-91.760015
 20
43.477855
 11
-92.362503
 21
44.080343
  0
LINE
  8
型材断面
  6
CONTINUOUS
 10
-92.362503
 20
45.017462
 11
-90.822895
 21
43.477855
  0
LINE
  8
型材断面
  6
CONTINUOUS
 10
-91.425382
 20
45.017462
 11
-91.080785
 21
44.672865
  0
LINE
  8
型材断面
  6
CONTINUOUS
 10
-91.080785
 20
44.672865
 11
-90.822895
 21
43.477855
  0
LINE
  8
型材断面
  6
CONTINUOUS
 10
-115.615272
 20
69.06119
 11
-91.571545
 21
45.017462
  0
LINE
  8
型材断面
  6
CONTINUOUS
 10
-116.40623
 20
68.27023
 11
-92.362503
 21
44.226505
  0
LINE
  8
型材断面
  6
CONTINUOUS
 10
-116.40623
 20
69.06119
 11
-92.362503
 21
45.017462
  0
LINE
  8
型材断面
  6
CONTINUOUS
 10
-89.061965
 20
44.592902
 11
-72.48957
 21
44.592902
  0
LINE
  8
型材断面
  6
CONTINUOUS
 10
-28.57291
 20
69.06119
 11
-72.48957
 21
69.06119
  0
LINE
  8
型材断面
  6
CONTINUOUS
 10
-34.367037
 20
65.85377
 11
-71.23957
 21
65.85377
  0
LINE
  8
型材断面
  6
CONTINUOUS
 10
-34.414178
 20
65.80663
 11
-71.23957
 21
65.80663
  0
LINE
  8
型材断面
  6
CONTINUOUS
 10
-34.519625
 20
65.701185
 11
-71.23957
 21
65.701185
  0
LINE
  8
型材断面
  6
CONTINUOUS
 10
-34.669625
 20
65.551185
 11
-71.23957
 21
65.551185
  0
LINE
  8
型材断面
  6
CONTINUOUS
 10
-28.57291
 20
69.06119
 11
-28.57291
 21
43.477855
  0
LINE
  8
型材断面
  6
CONTINUOUS
 10
-31.780328
 20
63.26706
 11
-31.780328
 21
43.477855
  0
LINE
  8
型材断面
  6
CONTINUOUS
 10
-31.932915
 20
63.114475
 11
-31.932915
 21
43.477855
  0
LINE
  8
型材断面
  6
CONTINUOUS
 10
-31.827467
 20
63.219923
 11
-31.827467
 21
43.477855
  0
LINE
  8
型材断面
  6
CONTINUOUS
 10
-32.082915
 20
62.964475
 11
-32.082915
 21
43.477855
  0
LINE
  8
型材断面
  6
CONTINUOUS
 10
-52.616637
 20
45.017462
 11
-52.616637
 21
44.080343
  0
LINE
  8
型材断面
  6
CONTINUOUS
 10
-52.616637
 20
45.017462
 11
-53.553758
 21
45.017462
  0
LINE
  8
型材断面
  6
CONTINUOUS
 10
-53.219125
 20
43.477855
 11
-52.616637
 21
44.080343
  0
LINE
  8
型材断面
  6
CONTINUOUS
 10
-52.616637
 20
45.017462
 11
-54.156245
 21
43.477855
  0
LINE
  8
型材断面
  6
CONTINUOUS
 10
-53.553758
 20
45.017462
 11
-53.898355
 21
44.672865
  0
LINE
  8
型材断面
  6
CONTINUOUS
 10
-53.898355
 20
44.672865
 11
-54.156245
 21
43.477855
  0
LINE
  8
型材断面
  6
CONTINUOUS
 10
-29.363868
 20
69.06119
 11
-53.407595
 21
45.017462
  0
LINE
  8
型材断面
  6
CONTINUOUS
 10
-28.57291
 20
68.27023
 11
-52.616637
 21
44.226505
  0
LINE
  8
型材断面
  6
CONTINUOUS
 10
-28.57291
 20
69.06119
 11
-52.616637
 21
45.017462
  0
LINE
  8
型材断面
  6
CONTINUOUS
 10
-55.917175
 20
44.592902
 11
-72.48957
 21
44.592902
  0
LINE
  8
型材断面
  6
CONTINUOUS
 10
-115.68028
 20
-72.22949
 11
-91.49523
 21
-48.04444
  0
LINE
  8
型材断面
  6
CONTINUOUS
 10
-116.465103
 20
-72.170625
 11
-90.8229
 21
-46.528425
  0
LINE
  8
型材断面
  6
CONTINUOUS
 10
-89.062038
 20
-47.644895
 11
-72.48957
 21
-47.644895
  0
LINE
  8
型材断面
  6
CONTINUOUS
 10
-91.088505
 20
-47.707495
 11
-72.48957
 21
-47.707495
  0
LINE
  8
型材断面
  6
CONTINUOUS
 10
-90.8229
 20
-46.528425
 11
-72.48957
 21
-46.528425
  0
LINE
  8
型材断面
  6
CONTINUOUS
 62
    47
 10
-28.572902
 20
-72.22949
 11
-28.572902
 21
-74.362823
  0
LINE
  8
型材断面
  6
CONTINUOUS
 10
-28.572902
 20
-72.22949
 11
-28.514037
 21
-72.170625
  0
LINE
  8
型材断面
  6
CONTINUOUS
 62
    47
 10
-29.13957
 20
-74.362823
 11
-29.13957
 21
-74.87949
  0
LINE
  8
型材断面
  6
CONTINUOUS
 62
    47
 10
-28.572902
 20
-74.362823
 11
-72.48957
 21
-74.362823
  0
LINE
  8
型材断面
  6
CONTINUOUS
 62
    47
 10
-29.13957
 20
-74.87949
 11
-72.48957
 21
-74.87949
  0
LINE
  8
型材断面
  6
CONTINUOUS
 10
-28.572902
 20
-72.22949
 11
-72.48957
 21
-72.22949
  0
LINE
  8
型材断面
  6
CONTINUOUS
 10
-29.29886
 20
-72.22949
 11
-53.48391
 21
-48.04444
  0
LINE
  8
型材断面
  6
CONTINUOUS
 10
-28.514037
 20
-72.170625
 11
-54.15624
 21
-46.528425
  0
LINE
  8
型材断面
  6
CONTINUOUS
 10
-55.917102
 20
-47.644895
 11
-72.48957
 21
-47.644895
  0
LINE
  8
型材断面
  6
CONTINUOUS
 10
-53.890635
 20
-47.707495
 11
-72.48957
 21
-47.707495
  0
LINE
  8
型材断面
  6
CONTINUOUS
 10
-54.15624
 20
-46.528425
 11
-72.48957
 21
-46.528425
  0
LINE
  8
型材断面
  6
DASHDOT
 10
-32.48957
 20
65.14452
 11
-32.48957
 21
-74.87949
  0
LINE
  8
型材断面
  6
DASHDOT
 10
-72.48957
 20
65.14452
 11
-72.48957
 21
-74.87949
  0
LINE
  8
型材断面
  6
DASHDOT
 10
-112.48957
 20
65.14452
 11
-112.48957
 21
-74.87949
  0
LINE
  8
ゴム等
  6
CONTINUOUS
 10
-73.022902
 20
-71.458882
 11
-73.73957
 21
-71.122985
  0
LINE
  8
ゴム等
  6
CONTINUOUS
 10
54.76141
 20
21.976718
 11
55.097307
 21
20.669552
  0
LINE
  8
ゴム等
  6
CONTINUOUS
 10
55.097307
 20
20.669552
 11
55.149028
 21
20.430372
  0
LINE
  8
ゴム等
  6
CONTINUOUS
 10
55.149028
 20
20.430372
 11
55.867913
 21
18.620478
  0
LINE
  8
ゴム等
  6
CONTINUOUS
 10
-112.35864
 20
19.3554
 11
-113.631297
 21
18.71504
  0
LINE
  8
ゴム等
  6
CONTINUOUS
 10
-113.631297
 20
18.71504
 11
-113.816783
 21
18.599265
  0
LINE
  8
ゴム等
  6
CONTINUOUS
 10
-113.870467
 20
18.589842
 11
-115.615272
 21
17.89452
  0
LINE
  8
ゴム等
  6
CONTINUOUS
 10
-114.94535
 20
21.94211
 11
-115.585713
 21
20.669455
  0
LINE
  8
ゴム等
  6
CONTINUOUS
 10
-115.585713
 20
20.669455
 11
-115.701485
 21
20.48397
  0
LINE
  8
ゴム等
  6
CONTINUOUS
 10
-115.710908
 20
20.430285
 11
-116.40623
 21
18.68548
  0
LINE
  8
ゴム等
  6
CONTINUOUS
 10
-113.631297
 20
18.71504
 11
-72.48957
 21
18.71504
  0
LINE
  8
ゴム等
  6
CONTINUOUS
 10
-113.870467
 20
18.589842
 11
-72.48957
 21
18.589842
  0
LINE
  8
ゴム等
  6
CONTINUOUS
 10
-73.022902
 20
18.71504
 11
-73.73957
 21
19.3554
  0
LINE
  8
ゴム等
  6
CONTINUOUS
 10
-112.35864
 20
19.3554
 11
-73.73957
 21
19.3554
  0
LINE
  8
ゴム等
  6
CONTINUOUS
 10
-112.324038
 20
-71.122985
 11
-113.631203
 21
-71.458882
  0
LINE
  8
ゴム等
  6
CONTINUOUS
 10
-113.631203
 20
-71.458882
 11
-113.870385
 21
-71.510603
  0
LINE
  8
ゴム等
  6
CONTINUOUS
 10
-113.870385
 20
-71.510603
 11
-115.68028
 21
-72.22949
  0
LINE
  8
ゴム等
  6
CONTINUOUS
 10
-113.631203
 20
-71.458882
 11
-72.48957
 21
-71.458882
  0
LINE
  8
ゴム等
  6
CONTINUOUS
 10
-113.870385
 20
-71.510603
 11
-72.48957
 21
-71.510603
  0
LINE
  8
ゴム等
  6
CONTINUOUS
 10
-112.324038
 20
-71.122985
 11
-73.73957
 21
-71.122985
  0
LINE
  8
ゴム等
  6
CONTINUOUS
 10
55.097307
 20
20.669552
 11
32.289003
 21
43.477855
  0
LINE
  8
ゴム等
  6
CONTINUOUS
 10
55.149028
 20
20.430372
 11
32.101542
 21
43.477855
  0
LINE
  8
ゴム等
  6
CONTINUOUS
 10
54.76141
 20
21.976718
 11
33.26027
 21
43.477855
  0
LINE
  8
ゴム等
  6
CONTINUOUS
 10
54.76141
 20
21.976718
 11
54.76141
 21
43.477855
  0
LINE
  8
ゴム等
  6
CONTINUOUS
 10
55.149028
 20
20.430372
 11
55.149028
 21
43.477855
  0
LINE
  8
ゴム等
  6
CONTINUOUS
 10
55.097307
 20
20.669552
 11
55.097307
 21
43.477855
  0
LINE
  8
ゴム等
  6
CONTINUOUS
 10
54.76141
 20
64.978992
 11
55.097307
 21
66.286158
  0
LINE
  8
ゴム等
  6
CONTINUOUS
 10
55.097307
 20
66.286158
 11
55.149028
 21
66.525338
  0
LINE
  8
ゴム等
  6
CONTINUOUS
 10
55.149028
 20
66.525338
 11
55.867913
 21
68.335232
  0
LINE
  8
ゴム等
  6
CONTINUOUS
 10
55.097307
 20
66.286158
 11
32.289003
 21
43.477855
  0
LINE
  8
ゴム等
  6
CONTINUOUS
 10
55.149028
 20
66.525338
 11
32.101542
 21
43.477855
  0
LINE
  8
ゴム等
  6
CONTINUOUS
 10
54.76141
 20
64.978992
 11
33.26027
 21
43.477855
  0
LINE
  8
ゴム等
  6
CONTINUOUS
 10
54.76141
 20
64.978992
 11
54.76141
 21
43.477855
  0
LINE
  8
ゴム等
  6
CONTINUOUS
 10
55.149028
 20
66.525338
 11
55.149028
 21
43.477855
  0
LINE
  8
ゴム等
  6
CONTINUOUS
 10
55.097307
 20
66.286158
 11
55.097307
 21
43.477855
  0
LINE
  8
ゴム等
  6
CONTINUOUS
 10
-115.710908
 20
20.430285
 11
-115.710908
 21
43.477855
  0
LINE
  8
ゴム等
  6
CONTINUOUS
 10
-115.585713
 20
20.669455
 11
-115.585713
 21
43.477855
  0
LINE
  8
ゴム等
  6
CONTINUOUS
 10
-114.94535
 20
21.94211
 11
-114.94535
 21
43.477855
  0
LINE
  8
ゴム等
  6
CONTINUOUS
 10
-91.080785
 20
42.282845
 11
-89.061965
 21
42.282845
  0
LINE
  8
ゴム等
  6
CONTINUOUS
 10
-89.061965
 20
42.282845
 11
-89.061965
 21
43.477855
  0
LINE
  8
ゴム等
  6
CONTINUOUS
 10
-112.35864
 20
19.3554
 11
-90.28805
 21
41.42599
  0
LINE
  8
ゴム等
  6
CONTINUOUS
 10
-113.631297
 20
18.71504
 11
-90.58602
 21
41.760315
  0
LINE
  8
ゴム等
  6
CONTINUOUS
 10
-113.870467
 20
18.589842
 11
-90.639678
 21
41.82063
  0
LINE
  8
ゴム等
  6
CONTINUOUS
 10
-114.94535
 20
21.94211
 11
-93.409605
 21
43.477855
  0
LINE
  8
ゴム等
  6
CONTINUOUS
 10
-115.585713
 20
20.669455
 11
-92.77731
 21
43.477855
  0
LINE
  8
ゴム等
  6
CONTINUOUS
 10
-115.710908
 20
20.430285
 11
-92.663335
 21
43.477855
  0
LINE
  8
ゴム等
  6
CONTINUOUS
 10
-90.58602
 20
41.760315
 11
-73.022902
 21
41.760315
  0
LINE
  8
ゴム等
  6
CONTINUOUS
 10
-90.639678
 20
41.82063
 11
-73.022902
 21
41.82063
  0
LINE
  8
ゴム等
  6
CONTINUOUS
 10
-90.28805
 20
41.42599
 11
-73.73957
 21
41.42599
  0
LINE
  8
ゴム等
  6
CONTINUOUS
 10
-73.73957
 20
19.3554
 11
-73.73957
 21
41.42599
  0
LINE
  8
ゴム等
  6
CONTINUOUS
 10
-73.022902
 20
18.71504
 11
-73.022902
 21
42.362808
  0
LINE
  8
ゴム等
  6
CONTINUOUS
 10
-32.6205
 20
19.3554
 11
-31.347843
 21
18.71504
  0
LINE
  8
ゴム等
  6
CONTINUOUS
 10
-31.347843
 20
18.71504
 11
-31.162357
 21
18.599265
  0
LINE
  8
ゴム等
  6
CONTINUOUS
 10
-31.108673
 20
18.589842
 11
-29.363868
 21
17.89452
  0
LINE
  8
ゴム等
  6
CONTINUOUS
 10
-30.03379
 20
21.94211
 11
-29.393427
 21
20.669455
  0
LINE
  8
ゴム等
  6
CONTINUOUS
 10
-29.393427
 20
20.669455
 11
-29.277655
 21
20.48397
  0
LINE
  8
ゴム等
  6
CONTINUOUS
 10
-29.268232
 20
20.430285
 11
-28.57291
 21
18.68548
  0
LINE
  8
ゴム等
  6
CONTINUOUS
 10
-31.347843
 20
18.71504
 11
-72.48957
 21
18.71504
  0
LINE
  8
ゴム等
  6
CONTINUOUS
 10
-31.108673
 20
18.589842
 11
-72.48957
 21
18.589842
  0
LINE
  8
ゴム等
  6
CONTINUOUS
 10
-71.956238
 20
18.71504
 11
-71.23957
 21
19.3554
  0
LINE
  8
ゴム等
  6
CONTINUOUS
 10
-32.6205
 20
19.3554
 11
-71.23957
 21
19.3554
  0
LINE
  8
ゴム等
  6
CONTINUOUS
 10
-29.268232
 20
20.430285
 11
-29.268232
 21
43.477855
  0
LINE
  8
ゴム等
  6
CONTINUOUS
 10
-29.393427
 20
20.669455
 11
-29.393427
 21
43.477855
  0
LINE
  8
ゴム等
  6
CONTINUOUS
 10
-30.03379
 20
21.94211
 11
-30.03379
 21
43.477855
  0
LINE
  8
ゴム等
  6
CONTINUOUS
 10
-53.898355
 20
42.282845
 11
-55.917175
 21
42.282845
  0
LINE
  8
ゴム等
  6
CONTINUOUS
 10
-55.917175
 20
42.282845
 11
-55.917175
 21
43.477855
  0
LINE
  8
ゴム等
  6
CONTINUOUS
 10
-32.6205
 20
19.3554
 11
-54.69109
 21
41.42599
  0
LINE
  8
ゴム等
  6
CONTINUOUS
 10
-31.347843
 20
18.71504
 11
-54.39312
 21
41.760315
  0
LINE
  8
ゴム等
  6
CONTINUOUS
 10
-31.108673
 20
18.589842
 11
-54.339462
 21
41.82063
  0
LINE
  8
ゴム等
  6
CONTINUOUS
 10
-30.03379
 20
21.94211
 11
-51.569535
 21
43.477855
  0
LINE
  8
ゴム等
  6
CONTINUOUS
 10
-29.393427
 20
20.669455
 11
-52.20183
 21
43.477855
  0
LINE
  8
ゴム等
  6
CONTINUOUS
 10
-29.268232
 20
20.430285
 11
-52.315805
 21
43.477855
  0
LINE
  8
ゴム等
  6
CONTINUOUS
 10
-54.39312
 20
41.760315
 11
-71.956238
 21
41.760315
  0
LINE
  8
ゴム等
  6
CONTINUOUS
 10
-54.339462
 20
41.82063
 11
-71.956238
 21
41.82063
  0
LINE
  8
ゴム等
  6
CONTINUOUS
 10
-54.69109
 20
41.42599
 11
-71.23957
 21
41.42599
  0
LINE
  8
ゴム等
  6
CONTINUOUS
 10
-71.23957
 20
19.3554
 11
-71.23957
 21
41.42599
  0
LINE
  8
ゴム等
  6
CONTINUOUS
 10
-71.956238
 20
18.71504
 11
-71.956238
 21
42.362808
  0
LINE
  8
ゴム等
  6
CONTINUOUS
 10
-112.35864
 20
67.60031
 11
-113.631297
 21
68.24067
  0
LINE
  8
ゴム等
  6
CONTINUOUS
 10
-113.631297
 20
68.24067
 11
-113.816783
 21
68.356445
  0
LINE
  8
ゴム等
  6
CONTINUOUS
 10
-113.870467
 20
68.365868
 11
-115.615272
 21
69.06119
  0
LINE
  8
ゴム等
  6
CONTINUOUS
 10
-114.94535
 20
65.0136
 11
-115.585713
 21
66.286255
  0
LINE
  8
ゴム等
  6
CONTINUOUS
 10
-115.585713
 20
66.286255
 11
-115.701485
 21
66.47174
  0
LINE
  8
ゴム等
  6
CONTINUOUS
 10
-115.710908
 20
66.525425
 11
-116.40623
 21
68.27023
  0
LINE
  8
ゴム等
  6
CONTINUOUS
 10
-113.631297
 20
68.24067
 11
-72.48957
 21
68.24067
  0
LINE
  8
ゴム等
  6
CONTINUOUS
 10
-113.870467
 20
68.365868
 11
-72.48957
 21
68.365868
  0
LINE
  8
ゴム等
  6
CONTINUOUS
 10
-73.022902
 20
68.24067
 11
-73.73957
 21
67.60031
  0
LINE
  8
ゴム等
  6
CONTINUOUS
 10
-112.35864
 20
67.60031
 11
-73.73957
 21
67.60031
  0
LINE
  8
ゴム等
  6
CONTINUOUS
 10
-115.710908
 20
66.525425
 11
-115.710908
 21
43.477855
  0
LINE
  8
ゴム等
  6
CONTINUOUS
 10
-115.585713
 20
66.286255
 11
-115.585713
 21
43.477855
  0
LINE
  8
ゴム等
  6
CONTINUOUS
 10
-114.94535
 20
65.0136
 11
-114.94535
 21
43.477855
  0
LINE
  8
ゴム等
  6
CONTINUOUS
 10
-91.080785
 20
44.672865
 11
-89.061965
 21
44.672865
  0
LINE
  8
ゴム等
  6
CONTINUOUS
 10
-89.061965
 20
44.672865
 11
-89.061965
 21
43.477855
  0
LINE
  8
ゴム等
  6
CONTINUOUS
 10
-112.35864
 20
67.60031
 11
-90.28805
 21
45.52972
  0
LINE
  8
ゴム等
  6
CONTINUOUS
 10
-113.631297
 20
68.24067
 11
-90.58602
 21
45.195395
  0
LINE
  8
ゴム等
  6
CONTINUOUS
 10
-113.870467
 20
68.365868
 11
-90.639678
 21
45.13508
  0
LINE
  8
ゴム等
  6
CONTINUOUS
 10
-114.94535
 20
65.0136
 11
-93.409605
 21
43.477855
  0
LINE
  8
ゴム等
  6
CONTINUOUS
 10
-115.585713
 20
66.286255
 11
-92.77731
 21
43.477855
  0
LINE
  8
ゴム等
  6
CONTINUOUS
 10
-115.710908
 20
66.525425
 11
-92.663335
 21
43.477855
  0
LINE
  8
ゴム等
  6
CONTINUOUS
 10
-90.58602
 20
45.195395
 11
-73.022902
 21
45.195395
  0
LINE
  8
ゴム等
  6
CONTINUOUS
 10
-90.639678
 20
45.13508
 11
-73.022902
 21
45.13508
  0
LINE
  8
ゴム等
  6
CONTINUOUS
 10
-90.28805
 20
45.52972
 11
-73.73957
 21
45.52972
  0
LINE
  8
ゴム等
  6
CONTINUOUS
 10
-73.73957
 20
67.60031
 11
-73.73957
 21
45.52972
  0
LINE
  8
ゴム等
  6
CONTINUOUS
 10
-73.022902
 20
68.24067
 11
-73.022902
 21
44.592902
  0
LINE
  8
ゴム等
  6
CONTINUOUS
 10
-32.6205
 20
67.60031
 11
-31.347843
 21
68.24067
  0
LINE
  8
ゴム等
  6
CONTINUOUS
 10
-31.347843
 20
68.24067
 11
-31.162357
 21
68.356445
  0
LINE
  8
ゴム等
  6
CONTINUOUS
 10
-31.108673
 20
68.365868
 11
-29.363868
 21
69.06119
  0
LINE
  8
ゴム等
  6
CONTINUOUS
 10
-30.03379
 20
65.0136
 11
-29.393427
 21
66.286255
  0
LINE
  8
ゴム等
  6
CONTINUOUS
 10
-29.393427
 20
66.286255
 11
-29.277655
 21
66.47174
  0
LINE
  8
ゴム等
  6
CONTINUOUS
 10
-29.268232
 20
66.525425
 11
-28.57291
 21
68.27023
  0
LINE
  8
ゴム等
  6
CONTINUOUS
 10
-31.347843
 20
68.24067
 11
-72.48957
 21
68.24067
  0
LINE
  8
ゴム等
  6
CONTINUOUS
 10
-31.108673
 20
68.365868
 11
-72.48957
 21
68.365868
  0
LINE
  8
ゴム等
  6
CONTINUOUS
 10
-71.956238
 20
68.24067
 11
-71.23957
 21
67.60031
  0
LINE
  8
ゴム等
  6
CONTINUOUS
 10
-32.6205
 20
67.60031
 11
-71.23957
 21
67.60031
  0
LINE
  8
ゴム等
  6
CONTINUOUS
 10
-29.268232
 20
66.525425
 11
-29.268232
 21
43.477855
  0
LINE
  8
ゴム等
  6
CONTINUOUS
 10
-29.393427
 20
66.286255
 11
-29.393427
 21
43.477855
  0
LINE
  8
ゴム等
  6
CONTINUOUS
 10
-30.03379
 20
65.0136
 11
-30.03379
 21
43.477855
  0
LINE
  8
ゴム等
  6
CONTINUOUS
 10
-53.898355
 20
44.672865
 11
-55.917175
 21
44.672865
  0
LINE
  8
ゴム等
  6
CONTINUOUS
 10
-55.917175
 20
44.672865
 11
-55.917175
 21
43.477855
  0
LINE
  8
ゴム等
  6
CONTINUOUS
 10
-32.6205
 20
67.60031
 11
-54.69109
 21
45.52972
  0
LINE
  8
ゴム等
  6
CONTINUOUS
 10
-31.347843
 20
68.24067
 11
-54.39312
 21
45.195395
  0
LINE
  8
ゴム等
  6
CONTINUOUS
 10
-31.108673
 20
68.365868
 11
-54.339462
 21
45.13508
  0
LINE
  8
ゴム等
  6
CONTINUOUS
 10
-30.03379
 20
65.0136
 11
-51.569535
 21
43.477855
  0
LINE
  8
ゴム等
  6
CONTINUOUS
 10
-29.393427
 20
66.286255
 11
-52.20183
 21
43.477855
  0
LINE
  8
ゴム等
  6
CONTINUOUS
 10
-29.268232
 20
66.525425
 11
-52.315805
 21
43.477855
  0
LINE
  8
ゴム等
  6
CONTINUOUS
 10
-54.39312
 20
45.195395
 11
-71.956238
 21
45.195395
  0
LINE
  8
ゴム等
  6
CONTINUOUS
 10
-54.339462
 20
45.13508
 11
-71.956238
 21
45.13508
  0
LINE
  8
ゴム等
  6
CONTINUOUS
 10
-54.69109
 20
45.52972
 11
-71.23957
 21
45.52972
  0
LINE
  8
ゴム等
  6
CONTINUOUS
 10
-71.23957
 20
67.60031
 11
-71.23957
 21
45.52972
  0
LINE
  8
ゴム等
  6
CONTINUOUS
 10
-71.956238
 20
68.24067
 11
-71.956238
 21
44.592902
  0
LINE
  8
ゴム等
  6
CONTINUOUS
 10
-90.728705
 20
-46.410575
 11
-89.062038
 21
-46.410575
  0
LINE
  8
ゴム等
  6
CONTINUOUS
 10
-89.062038
 20
-46.410575
 11
-89.062038
 21
-47.652725
  0
LINE
  8
ゴム等
  6
CONTINUOUS
 10
-90.986595
 20
-47.605585
 11
-89.062038
 21
-47.605585
  0
LINE
  8
ゴム等
  6
CONTINUOUS
 10
-89.062038
 20
-47.652725
 11
-91.033735
 21
-47.652725
  0
LINE
  8
ゴム等
  6
CONTINUOUS
 10
-92.362572
 20
-48.04444
 11
-91.425453
 21
-48.04444
  0
LINE
  8
ゴム等
  6
CONTINUOUS
 10
-92.362572
 20
-48.04444
 11
-90.728705
 21
-46.410575
  0
LINE
  8
ゴム等
  6
CONTINUOUS
 10
-91.425453
 20
-48.04444
 11
-90.986595
 21
-47.605585
  0
LINE
  8
ゴム等
  6
CONTINUOUS
 10
-90.769582
 20
-48.409738
 11
-90.693303
 21
-48.520917
  0
LINE
  8
ゴム等
  6
CONTINUOUS
 10
-90.693303
 20
-48.520917
 11
-90.365925
 21
-49.16481
  0
LINE
  8
ゴム等
  6
CONTINUOUS
 10
-90.769582
 20
-48.409738
 11
-91.13346
 21
-47.75245
  0
LINE
  8
ゴム等
  6
CONTINUOUS
 10
-113.870385
 20
-71.510603
 11
-90.756467
 21
-48.396685
  0
LINE
  8
ゴム等
  6
CONTINUOUS
 10
-113.631203
 20
-71.458882
 11
-90.693282
 21
-48.520957
  0
LINE
  8
ゴム等
  6
CONTINUOUS
 10
-112.324038
 20
-71.122985
 11
-90.365905
 21
-49.164852
  0
LINE
  8
ゴム等
  6
CONTINUOUS
 10
-90.769582
 20
-48.409738
 11
-73.022902
 21
-48.409738
  0
LINE
  8
ゴム等
  6
CONTINUOUS
 10
-90.693303
 20
-48.520917
 11
-73.022902
 21
-48.520917
  0
LINE
  8
ゴム等
  6
CONTINUOUS
 10
-90.365925
 20
-49.16481
 11
-73.73957
 21
-49.16481
  0
LINE
  8
ゴム等
  6
CONTINUOUS
 10
-73.73957
 20
-71.122985
 11
-73.73957
 21
-49.16481
  0
LINE
  8
ゴム等
  6
CONTINUOUS
 10
-73.022902
 20
-71.458882
 11
-73.022902
 21
-47.707495
  0
LINE
  8
ゴム等
  6
CONTINUOUS
 10
-71.956238
 20
-71.458882
 11
-71.23957
 21
-71.122985
  0
LINE
  8
ゴム等
  6
CONTINUOUS
 10
-32.655102
 20
-71.122985
 11
-31.347937
 21
-71.458882
  0
LINE
  8
ゴム等
  6
CONTINUOUS
 10
-31.347937
 20
-71.458882
 11
-31.108755
 21
-71.510603
  0
LINE
  8
ゴム等
  6
CONTINUOUS
 10
-31.108755
 20
-71.510603
 11
-29.29886
 21
-72.22949
  0
LINE
  8
ゴム等
  6
CONTINUOUS
 10
-31.347937
 20
-71.458882
 11
-72.48957
 21
-71.458882
  0
LINE
  8
ゴム等
  6
CONTINUOUS
 10
-31.108755
 20
-71.510603
 11
-72.48957
 21
-71.510603
  0
LINE
  8
ゴム等
  6
CONTINUOUS
 10
-32.655102
 20
-71.122985
 11
-71.23957
 21
-71.122985
  0
LINE
  8
ゴム等
  6
CONTINUOUS
 10
-54.250435
 20
-46.410575
 11
-55.917102
 21
-46.410575
  0
LINE
  8
ゴム等
  6
CONTINUOUS
 10
-55.917102
 20
-46.410575
 11
-55.917102
 21
-47.652725
  0
LINE
  8
ゴム等
  6
CONTINUOUS
 10
-53.992545
 20
-47.605585
 11
-55.917102
 21
-47.605585
  0
LINE
  8
ゴム等
  6
CONTINUOUS
 10
-55.917102
 20
-47.652725
 11
-53.945405
 21
-47.652725
  0
LINE
  8
ゴム等
  6
CONTINUOUS
 10
-52.616568
 20
-48.04444
 11
-53.553687
 21
-48.04444
  0
LINE
  8
ゴム等
  6
CONTINUOUS
 10
-52.616568
 20
-48.04444
 11
-54.250435
 21
-46.410575
  0
LINE
  8
ゴム等
  6
CONTINUOUS
 10
-53.553687
 20
-48.04444
 11
-53.992545
 21
-47.605585
  0
LINE
  8
ゴム等
  6
CONTINUOUS
 10
-54.209558
 20
-48.409738
 11
-54.285837
 21
-48.520917
  0
LINE
  8
ゴム等
  6
CONTINUOUS
 10
-54.285837
 20
-48.520917
 11
-54.613215
 21
-49.16481
  0
LINE
  8
ゴム等
  6
CONTINUOUS
 10
-54.209558
 20
-48.409738
 11
-53.84568
 21
-47.75245
  0
LINE
  8
ゴム等
  6
CONTINUOUS
 10
-31.108755
 20
-71.510603
 11
-54.222673
 21
-48.396685
  0
LINE
  8
ゴム等
  6
CONTINUOUS
 10
-31.347937
 20
-71.458882
 11
-54.285858
 21
-48.520957
  0
LINE
  8
ゴム等
  6
CONTINUOUS
 10
-32.655102
 20
-71.122985
 11
-54.613235
 21
-49.164852
  0
LINE
  8
ゴム等
  6
CONTINUOUS
 10
-54.209558
 20
-48.409738
 11
-71.956238
 21
-48.409738
  0
LINE
  8
ゴム等
  6
CONTINUOUS
 10
-54.285837
 20
-48.520917
 11
-71.956238
 21
-48.520917
  0
LINE
  8
ゴム等
  6
CONTINUOUS
 10
-54.613215
 20
-49.16481
 11
-71.23957
 21
-49.16481
  0
LINE
  8
ゴム等
  6
CONTINUOUS
 10
-71.23957
 20
-71.122985
 11
-71.23957
 21
-49.16481
  0
LINE
  8
ゴム等
  6
CONTINUOUS
 10
-71.956238
 20
-71.458882
 11
-71.956238
 21
-47.707495
  0
TEXT
  7
TextStyle03
  8
文字
  6
CONTINUOUS
 10
-21.6
 20
0.175
  1
は排水穴位置を示す
 40
3.0
 72
     5
 11
8.4
 21
0.175
  0
TEXT
  7
TextStyle03
  8
文字
  6
CONTINUOUS
 10
148.6
 20
5.375
  1
×　２枚
 40
4.0
 72
     5
 11
166.1
 21
5.375
  0
TEXT
  7
TextStyle03
  8
文字
  6
CONTINUOUS
 10
148.6
 20
52.2
  1
×　右２枚
 40
4.0
 72
     5
 11
170.6
 21
52.2
  0
TEXT
  7
TextStyle03
  8
文字
  6
CONTINUOUS
 10
148.6
 20
47.7
  1
×　左２枚
 40
4.0
 72
     5
 11
170.6
 21
47.7
  0
TEXT
  7
TextStyle03
  8
文字
  6
CONTINUOUS
 10
-133.4
 20
84.15
  1
アンカーピッチ
 40
3.0
 72
     5
 11
-110.15
 21
84.15
  0
TEXT
  7
TextStyle03
  8
文字
  6
CONTINUOUS
 10
-139.75
 20
-1.125
  1
アンカーピッチ
 40
3.0
 50
90.0
 72
     5
 11
-139.75
 21
22.125
  0
TEXT
  7
TextStyle03
  8
文字
  6
CONTINUOUS
 10
66.3
 20
120.925
  1
シリーズ：ＤＦＹＫ
 40
5.0
 72
     5
 11
116.3
 21
120.925
  0
TEXT
  7
TextStyle03
  8
文字
  6
CONTINUOUS
 10
66.3
 20
115.3
  1
　　　　　山型四角錘（固定）1300×2400タイプ
 40
5.0
 72
     5
 11
189.425
 21
115.3
  0
TEXT
  7
TextStyle03
  8
文字
  6
CONTINUOUS
 10
66.3
 20
109.675
  1
図面名　：外観姿図
 40
5.0
 72
     5
 11
116.3
 21
109.675
  0
TEXT
  7
TextStyle03
  8
文字
  6
CONTINUOUS
 10
66.3
 20
104.05
  1

 40
5.0
 41
1.125
  0
TEXT
  7
TextStyle03
  8
文字
  6
CONTINUOUS
 10
66.3
 20
98.425
  1
ＮＳコード：ＮＳ４ＹＫ
 40
5.0
 72
     5
 11
127.55
 21
98.425
  0
INSERT
  2
*DIM_0002
  8
寸法
  6
CONTINUOUS
 10
0.0
 20
0.0
  0
LINE
  8
寸法
  6
CONTINUOUS
 10
-97.48957
 20
17.611188
 11
-98.865203
 21
15.228522
  0
LINE
  8
寸法
  6
CONTINUOUS
 10
-97.48957
 20
17.611188
 11
-96.113937
 21
15.228522
  0
LINE
  8
寸法
  6
CONTINUOUS
 10
-96.113937
 20
15.228522
 11
-98.865203
 21
15.228522
  0
INSERT
  2
*DIM_0003
  8
寸法
  6
CONTINUOUS
 10
0.0
 20
0.0
  0
LINE
  8
寸法
  6
CONTINUOUS
 10
-24.65417
 20
2.613172
 11
-23.278538
 21
0.230508
  0
LINE
  8
寸法
  6
CONTINUOUS
 10
-24.65417
 20
2.613172
 11
-26.029803
 21
0.230508
  0
LINE
  8
寸法
  6
CONTINUOUS
 10
-26.029803
 20
0.230508
 11
-23.278538
 21
0.230508
  0
LINE
  8
寸法
  6
CONTINUOUS
 10
-28.003658
 20
-1.421447
 11
10.071655
 21
-1.421447
  0
INSERT
  2
*DIM_0004
  8
寸法
  6
CONTINUOUS
 10
0.0
 20
0.0
  0
INSERT
  2
*DIM_0005
  8
寸法
  6
CONTINUOUS
 10
0.0
 20
0.0
  0
INSERT
  2
*DIM_0006
  8
寸法
  6
CONTINUOUS
 10
0.0
 20
0.0
  0
INSERT
  2
*DIM_0007
  8
寸法
  6
CONTINUOUS
 10
0.0
 20
0.0
  0
INSERT
  2
*DIM_0008
  8
寸法
  6
CONTINUOUS
 10
0.0
 20
0.0
  0
INSERT
  2
*DIM_0009
  8
寸法
  6
CONTINUOUS
 10
0.0
 20
0.0
  0
INSERT
  2
*DIM_0010
  8
寸法
  6
CONTINUOUS
 10
0.0
 20
0.0
  0
INSERT
  2
*DIM_0011
  8
寸法
  6
CONTINUOUS
 10
0.0
 20
0.0
  0
INSERT
  2
*DIM_0012
  8
寸法
  6
CONTINUOUS
 10
0.0
 20
0.0
  0
INSERT
  2
*DIM_0013
  8
寸法
  6
CONTINUOUS
 10
0.0
 20
0.0
  0
LINE
  8
寸法
  6
CONTINUOUS
 10
-47.48957
 20
17.611188
 11
-46.113937
 21
15.228522
  0
LINE
  8
寸法
  6
CONTINUOUS
 10
-47.48957
 20
17.611188
 11
-48.865203
 21
15.228522
  0
LINE
  8
寸法
  6
CONTINUOUS
 10
-48.865203
 20
15.228522
 11
-46.113937
 21
15.228522
  0
LINE
  8
寸法
  6
CONTINUOUS
 10
-97.48957
 20
69.344522
 11
-98.865203
 21
71.727188
  0
LINE
  8
寸法
  6
CONTINUOUS
 10
-97.48957
 20
69.344522
 11
-96.113937
 21
71.727188
  0
LINE
  8
寸法
  6
CONTINUOUS
 10
-96.113937
 20
71.727188
 11
-98.865203
 21
71.727188
  0
LINE
  8
寸法
  6
CONTINUOUS
 10
-47.48957
 20
69.344522
 11
-46.113937
 21
71.727188
  0
LINE
  8
寸法
  6
CONTINUOUS
 10
-47.48957
 20
69.344522
 11
-48.865203
 21
71.727188
  0
LINE
  8
寸法
  6
CONTINUOUS
 10
-48.865203
 20
71.727188
 11
-46.113937
 21
71.727188
  0
LINE
  8
寸法
  6
CONTINUOUS
 10
-28.57291
 20
43.477855
 11
-26.190245
 21
44.853487
  0
LINE
  8
寸法
  6
CONTINUOUS
 10
-28.57291
 20
43.477855
 11
-26.190245
 21
42.102223
  0
LINE
  8
寸法
  6
CONTINUOUS
 10
-26.190245
 20
42.102223
 11
-26.190245
 21
44.853487
  0
LINE
  8
寸法
  6
CONTINUOUS
 10
-116.40623
 20
43.477855
 11
-118.788895
 21
44.853487
  0
LINE
  8
寸法
  6
CONTINUOUS
 10
-116.40623
 20
43.477855
 11
-118.788895
 21
42.102223
  0
LINE
  8
寸法
  6
CONTINUOUS
 10
-118.788895
 20
42.102223
 11
-118.788895
 21
44.853487
  0
INSERT
  2
*DIM_0014
  8
寸法
  6
CONTINUOUS
 10
0.0
 20
0.0
  0
INSERT
  2
*DIM_0015
  8
寸法
  6
CONTINUOUS
 10
0.0
 20
0.0
  0
INSERT
  2
*DIM_0016
  8
寸法
  6
CONTINUOUS
 10
0.0
 20
0.0
  0
INSERT
  2
*DIM_0017
  8
寸法
  6
CONTINUOUS
 10
0.0
 20
0.0
  0
INSERT
  2
*DIM_0018
  8
寸法
  6
CONTINUOUS
 10
0.0
 20
0.0
  0
INSERT
  2
*DIM_0019
  8
寸法
  6
CONTINUOUS
 10
0.0
 20
0.0
  0
INSERT
  2
*DIM_0020
  8
寸法
  6
CONTINUOUS
 10
0.0
 20
0.0
  0
INSERT
  2
*DIM_0021
  8
寸法
  6
CONTINUOUS
 10
0.0
 20
0.0
  0
INSERT
  2
*DIM_0022
  8
寸法
  6
CONTINUOUS
 10
0.0
 20
0.0
  0
INSERT
  2
*DIM_0023
  8
寸法
  6
CONTINUOUS
 10
0.0
 20
0.0
  0
INSERT
  2
*DIM_0024
  8
寸法
  6
CONTINUOUS
 10
0.0
 20
0.0
  0
INSERT
  2
*DIM_0025
  8
寸法
  6
CONTINUOUS
 10
0.0
 20
0.0
  0
INSERT
  2
*DIM_0026
  8
寸法
  6
CONTINUOUS
 10
0.0
 20
0.0
  0
INSERT
  2
*DIM_0027
  8
寸法
  6
CONTINUOUS
 10
0.0
 20
0.0
  0
INSERT
  2
*DIM_0028
  8
寸法
  6
CONTINUOUS
 10
0.0
 20
0.0
  0
LINE
  8
曲げ物
  6
CONTINUOUS
 10
133.978088
 20
40.399878
 11
133.978088
 21
72.74003
  0
LINE
  8
曲げ物
  6
CONTINUOUS
 10
133.978088
 20
40.399878
 11
93.87498
 21
40.399878
  0
LINE
  8
曲げ物
  6
CONTINUOUS
 10
93.87498
 20
40.399878
 11
116.743015
 21
72.74003
  0
LINE
  8
曲げ物
  6
CONTINUOUS
 10
133.978088
 20
72.74003
 11
116.743015
 21
72.74003
  0
LINE
  8
曲げ物
  6
CONTINUOUS
 10
115.897192
 20
50.94048
 11
123.758512
 21
58.8018
  0
LINE
  8
曲げ物
  6
CONTINUOUS
 10
121.58108
 20
55.297357
 11
119.401635
 21
53.117913
  0
LINE
  8
曲げ物
  6
CONTINUOUS
 10
120.25407
 20
56.624367
 11
118.074625
 21
54.444923
  0
LINE
  8
曲げ物
  6
CONTINUOUS
 10
91.40675
 20
-10.769575
 11
136.446315
 21
-10.769575
  0
LINE
  8
曲げ物
  6
CONTINUOUS
 10
91.40675
 20
-10.769575
 11
113.926533
 21
21.078077
  0
LINE
  8
曲げ物
  6
CONTINUOUS
 10
136.446315
 20
-10.769575
 11
113.926533
 21
21.078077
  0
LINE
  8
曲げ物
  6
CONTINUOUS
 10
109.25877
 20
-2.689217
 11
117.12009
 21
5.172103
  0
LINE
  8
曲げ物
  6
CONTINUOUS
 10
114.942657
 20
1.66766
 11
112.763213
 21
-0.511785
  0
LINE
  8
曲げ物
  6
CONTINUOUS
 10
113.615647
 20
2.99467
 11
111.436203
 21
0.815225
  0
ENDSEC
  0
EOF
