  0
SECTION
  2
HEADER
  9
$EXTMIN
 10
-210.0
 20
-148.5
  9
$EXTMAX
 10
210.0
 20
148.5
  9
$PDMODE
 70
    32
  9
$PDSIZE
 40
1.5
  9
$LTSCALE
 40
10.0
  0
ENDSEC
  0
SECTION
  2
TABLES
  0
TABLE
  2
LTYPE
 70
    15
  0
LTYPE
  2
CONTINUOUS
 70
    64
  3
実線
 72
    65
 73
     0
 40
0.0
  0
LTYPE
  2
DASHED
 70
    64
  3
破線A
 72
    65
 73
     2
 40
0.6
 49
0.4
 49
-0.2
  0
LTYPE
  2
DASHEDX2
 70
    64
  3
破線B
 72
    65
 73
     2
 40
1.3
 49
0.9
 49
-0.4
  0
LTYPE
  2
DASHDOT
 70
    64
  3
１点鎖線A
 72
    65
 73
     4
 40
0.5375
 49
0.375
 49
-0.05
 49
0.0625
 49
-0.05
  0
LTYPE
  2
DASHDOTX2
 70
    64
  3
１点鎖線B
 72
    65
 73
     4
 40
1.075
 49
0.75
 49
-0.1
 49
0.125
 49
-0.1
  0
LTYPE
  2
DIVIDE2
 70
    64
  3
２点鎖線A
 72
    65
 73
     6
 40
0.5125
 49
0.3
 49
-0.0375
 49
0.05
 49
-0.0375
 49
0.05
 49
-0.0375
  0
LTYPE
  2
DIVIDE
 70
    64
  3
２点鎖線B
 72
    65
 73
     6
 40
1.05
 49
0.55
 49
-0.1
 49
0.1
 49
-0.1
 49
0.1
 49
-0.1
  0
LTYPE
  2
DOT
 70
    64
  3
点線A
 72
    65
 73
     2
 40
0.1125
 49
0.0625
 49
-0.05
  0
LTYPE
  2
DOTX2
 70
    64
  3
点線B
 72
    65
 73
     2
 40
0.275
 49
0.15
 49
-0.125
  0
LTYPE
  2
CONTINUOUS
 70
    64
  3
実線
 72
    65
 73
     0
 40
0.0
  0
LTYPE
  2
CONTINUOUS
 70
    64
  3
実線
 72
    65
 73
     0
 40
0.0
  0
LTYPE
  2
CONTINUOUS
 70
    64
  3
実線
 72
    65
 73
     0
 40
0.0
  0
LTYPE
  2
CONTINUOUS
 70
    64
  3
実線
 72
    65
 73
     0
 40
0.0
  0
LTYPE
  2
CONTINUOUS
 70
    64
  3
実線
 72
    65
 73
     0
 40
0.0
  0
LTYPE
  2
CONTINUOUS
 70
    64
  3
実線
 72
    65
 73
     0
 40
0.0
  0
ENDTAB
  0
TABLE
  2
LAYER
 70
    34
  0
LAYER
  2
通り芯
 70
     0
 62
    15
  6
CONTINUOUS
  0
LAYER
  2
補助線
 70
     0
 62
    16
  6
DOT
  0
LAYER
  2
躯体
 70
     0
 62
    31
  6
CONTINUOUS
  0
LAYER
  2
型材
 70
     0
 62
    32
  6
CONTINUOUS
  0
LAYER
  2
型材断面
 70
     0
 62
    47
  6
CONTINUOUS
  0
LAYER
  2
ガラス
 70
     0
 62
    48
  6
CONTINUOUS
  0
LAYER
  2
ゴム等
 70
     0
 62
    63
  6
CONTINUOUS
  0
LAYER
  2
ボルト／ビス
 70
     0
 62
    64
  6
CONTINUOUS
  0
LAYER
  2
文字
 70
     0
 62
    79
  6
CONTINUOUS
  0
LAYER
  2
寸法
 70
     0
 62
    80
  6
CONTINUOUS
  0
LAYER
  2
ﾊｯﾁﾝｸﾞ
 70
     0
 62
    95
  6
CONTINUOUS
  0
LAYER
  2
別途部材
 70
     0
 62
    96
  6
CONTINUOUS
  0
LAYER
  2
曲げ物
 70
     0
 62
   111
  6
CONTINUOUS
  0
LAYER
  2
鉄骨等
 70
     0
 62
   112
  6
CONTINUOUS
  0
LAYER
  2
St
 70
     0
 62
   127
  6
CONTINUOUS
  0
LAYER
  2
その他部品等
 70
     0
 62
   128
  6
CONTINUOUS
  0
LAYER
  2
ｶﾞｽｹｯﾄ
 70
     0
 62
   143
  6
CONTINUOUS
  0
LAYER
  2
ｽｹｯﾁ
 70
     0
 62
    14
  6
CONTINUOUS
  0
LAYER
  2
0
 70
     0
 62
    17
  6
CONTINUOUS
  0
LAYER
  2
1
 70
     0
 62
    30
  6
CONTINUOUS
  0
LAYER
  2
4
 70
     0
 62
    33
  6
CONTINUOUS
  0
LAYER
  2
ﾚｲﾔ3
 70
     0
 62
    46
  6
CONTINUOUS
  0
LAYER
  2
外形線
 70
     0
 62
    49
  6
CONTINUOUS
  0
LAYER
  2
部品
 70
     0
 62
    14
  6
CONTINUOUS
  0
LAYER
  2
サッシ芯
 70
     0
 62
    17
  6
DASHDOTX2
  0
LAYER
  2
寸法線
 70
     0
 62
    62
  6
CONTINUOUS
  0
LAYER
  2
姿図外形線
 70
     0
 62
    65
  6
CONTINUOUS
  0
LAYER
  2
姿補助線
 70
     0
 62
    30
  6
CONTINUOUS
  0
LAYER
  2
透視線
 70
     0
 62
    78
  6
DOT
  0
LAYER
  2
用紙
 70
     0
 62
    81
  6
CONTINUOUS
  0
LAYER
  2
実線図枠
 70
     0
 62
    94
  6
CONTINUOUS
  0
LAYER
  2
補助図枠
 70
     0
 62
    97
  6
CONTINUOUS
  0
LAYER
  2
建具記号
 70
     0
 62
   110
  6
CONTINUOUS
  0
LAYER
  2
補助文字
 70
     0
 62
   113
  6
CONTINUOUS
  0
ENDTAB
  0
TABLE
  2
STYLE
 70
    10
  0
STYLE
  2
STANDARD
 70
     0
 40
1.0
 41
1.0
 42
1.0
 50
0.0
 71
     0
  3
TXT
  4
BIGFONT
  0
STYLE
  2
TATE
 70
     4
 40
1.0
 41
1.0
 42
1.0
 50
0.0
 71
     0
  3
TXT
  4
BIGFONT
  0
STYLE
  2
TextStyle03
 70
     0
 40
1.0
 41
1.0
 42
1.0
 50
0.0
 71
     0
  3
MONOTXT
  4
BIGFONT
  0
STYLE
  2
TextStyle04
 70
     0
 40
1.0
 41
1.0
 42
1.0
 50
0.0
 71
     0
  3
MONOTXT
  4
BIGFONT
  0
STYLE
  2
TextStyle05
 70
     0
 40
1.0
 41
1.0
 42
1.0
 50
0.0
 71
     0
  3
MONOTXT
  4
BIGFONT
  0
STYLE
  2
TextStyle06
 70
     0
 40
1.0
 41
1.0
 42
1.0
 50
0.0
 71
     0
  3
MONOTXT
  4
BIGFONT
  0
STYLE
  2
TextStyle07
 70
     0
 40
1.0
 41
1.0
 42
1.0
 50
0.0
 71
     0
  3
MONOTXT
  4
BIGFONT
  0
STYLE
  2
TextStyle08
 70
     0
 40
1.0
 41
1.0
 42
1.0
 50
0.0
 71
     0
  3
MONOTXT
  4
BIGFONT
  0
STYLE
  2
TextStyle09
 70
     0
 40
1.0
 41
1.0
 42
1.0
 50
0.0
 71
     0
  3
MONOTXT
  4
BIGFONT
  0
STYLE
  2
TextStyle10
 70
     0
 40
1.0
 41
1.0
 42
1.0
 50
0.0
 71
     0
  3
MONOTXT
  4
BIGFONT
  0
ENDTAB
  0
ENDSEC
  0
SECTION
  2
BLOCKS
  0
BLOCK
  2
*GRP_0001
 70
    65
 10
0.0
 20
0.0
  0
LINE
  8
型材断面
  6
CONTINUOUS
 10
195.0
 20
133.5
 11
195.0
 21
-133.5
  0
LINE
  8
型材断面
  6
CONTINUOUS
 10
195.0
 20
-133.5
 11
-185.0
 21
-133.5
  0
LINE
  8
型材断面
  6
CONTINUOUS
 10
-185.0
 20
-133.5
 11
-185.0
 21
133.5
  0
LINE
  8
型材断面
  6
CONTINUOUS
 10
195.0
 20
133.5
 11
-185.0
 21
133.5
  0
LINE
  8
型材断面
  6
CONTINUOUS
 10
145.0
 20
-133.5
 11
145.0
 21
-118.5
  0
LINE
  8
型材断面
  6
CONTINUOUS
 10
195.0
 20
-118.5
 11
145.0
 21
-118.5
  0
ENDBLK
  0
BLOCK
  2
*DIM_0002
 70
    65
 10
0.0
 20
0.0
  0
LINE
  8
寸法
  6
BYBLOCK
 62
     0
 10
-53.254005
 20
-59.301397
 11
-53.254005
 21
-52.688047
  0
LINE
  8
寸法
  6
BYBLOCK
 62
     0
 10
-48.254005
 20
-59.301397
 11
-48.254005
 21
-52.688047
  0
LINE
  8
寸法
  6
BYBLOCK
 62
     0
 10
-53.254005
 20
-52.688047
 11
-48.254005
 21
-52.688047
  0
POINT
  8
寸法
 62
     0
 10
-53.254005
 20
-52.688047
  0
POINT
  8
寸法
 62
     0
 10
-48.254005
 20
-52.688047
  0
TEXT
  7
TextStyle03
  8
寸法
  6
CONTINUOUS
 62
     0
 10
-53.2375
 20
-52.325
  1
100
 40
3.0
 72
     5
 11
-48.3625
 21
-52.325
  0
ENDBLK
  0
BLOCK
  2
*DIM_0003
 70
    65
 10
0.0
 20
0.0
  0
LINE
  8
寸法
  6
BYBLOCK
 62
     0
 10
-73.254005
 20
-33.377287
 11
-28.254005
 21
-33.377287
  0
POINT
  8
寸法
 62
     0
 10
-73.254005
 20
-33.377287
  0
POINT
  8
寸法
 62
     0
 10
-28.254005
 20
-33.377287
  0
TEXT
  7
TextStyle03
  8
寸法
  6
CONTINUOUS
 62
     0
 10
-61.65
 20
-33.025
  1
呼称寸法　900
 40
3.0
 72
     5
 11
-39.9
 21
-33.025
  0
ENDBLK
  0
BLOCK
  2
*DIM_0004
 70
    65
 10
0.0
 20
0.0
  0
LINE
  8
寸法
  6
BYBLOCK
 62
     0
 10
-53.254005
 20
32.033028
 11
-53.254005
 21
39.705432
  0
LINE
  8
寸法
  6
BYBLOCK
 62
     0
 10
-48.254005
 20
32.033028
 11
-48.254005
 21
39.705432
  0
LINE
  8
寸法
  6
BYBLOCK
 62
     0
 10
-53.254005
 20
39.705432
 11
-48.254005
 21
39.705432
  0
POINT
  8
寸法
 62
     0
 10
-53.254005
 20
39.705432
  0
POINT
  8
寸法
 62
     0
 10
-48.254005
 20
39.705432
  0
TEXT
  7
TextStyle03
  8
寸法
  6
CONTINUOUS
 62
     0
 10
-53.2375
 20
40.05
  1
100
 40
3.0
 72
     5
 11
-48.3625
 21
40.05
  0
ENDBLK
  0
BLOCK
  2
*DIM_0005
 70
    65
 10
0.0
 20
0.0
  0
LINE
  8
寸法
  6
BYBLOCK
 62
     0
 10
-65.754005
 20
52.716028
 11
-65.754005
 21
70.655042
  0
LINE
  8
寸法
  6
BYBLOCK
 62
     0
 10
-35.754005
 20
52.716028
 11
-35.754005
 21
70.655042
  0
LINE
  8
寸法
  6
BYBLOCK
 62
     0
 10
-65.754005
 20
70.655042
 11
-35.754005
 21
70.655042
  0
POINT
  8
寸法
 62
     0
 10
-65.754005
 20
70.655042
  0
POINT
  8
寸法
 62
     0
 10
-35.754005
 20
70.655042
  0
TEXT
  7
TextStyle03
  8
寸法
  6
CONTINUOUS
 62
     0
 10
-53.2125
 20
71.025
  1
600
 40
3.0
 72
     5
 11
-48.3375
 21
71.025
  0
ENDBLK
  0
BLOCK
  2
*DIM_0006
 70
    65
 10
0.0
 20
0.0
  0
LINE
  8
寸法
  6
BYBLOCK
 62
     0
 10
-74.254005
 20
51.716028
 11
-97.162248
 21
51.716028
  0
LINE
  8
寸法
  6
BYBLOCK
 62
     0
 10
-74.254005
 20
29.216028
 11
-97.162248
 21
29.216028
  0
LINE
  8
寸法
  6
BYBLOCK
 62
     0
 10
-97.162248
 20
51.716028
 11
-97.162248
 21
29.216028
  0
POINT
  8
寸法
 62
     0
 10
-97.162248
 20
51.716028
  0
POINT
  8
寸法
 62
     0
 10
-97.162248
 20
29.216028
  0
TEXT
  7
TextStyle03
  8
寸法
  6
CONTINUOUS
 62
     0
 10
-97.55
 20
38.0125
  1
450
 40
3.0
 50
90.0
 72
     5
 11
-97.55
 21
42.8875
  0
ENDBLK
  0
BLOCK
  2
*DIM_0007
 70
    65
 10
0.0
 20
0.0
  0
LINE
  8
寸法
  6
BYBLOCK
 62
     0
 10
-74.254005
 20
6.716028
 11
-97.162248
 21
6.716028
  0
LINE
  8
寸法
  6
BYBLOCK
 62
     0
 10
-97.162248
 20
29.216028
 11
-97.162248
 21
6.716028
  0
POINT
  8
寸法
 62
     0
 10
-97.162248
 20
6.716028
  0
TEXT
  7
TextStyle03
  8
寸法
  6
CONTINUOUS
 62
     0
 10
-97.55
 20
15.5125
  1
450
 40
3.0
 50
90.0
 72
     5
 11
-97.55
 21
20.3875
  0
ENDBLK
  0
BLOCK
  2
*DIM_0008
 70
    65
 10
0.0
 20
0.0
  0
LINE
  8
寸法
  6
BYBLOCK
 62
     0
 10
-21.379005
 20
-90.01338
 11
-1.52438
 21
-90.01338
  0
LINE
  8
寸法
  6
BYBLOCK
 62
     0
 10
-21.379005
 20
-86.813382
 11
-1.52438
 21
-86.813382
  0
LINE
  8
寸法
  6
BYBLOCK
 62
     0
 10
-1.52438
 20
-90.01338
 11
-1.52438
 21
-86.813382
  0
POINT
  8
寸法
 62
     0
 10
-1.52438
 20
-90.01338
  0
POINT
  8
寸法
 62
     0
 10
-1.52438
 20
-86.813382
  0
TEXT
  7
TextStyle03
  8
寸法
  6
CONTINUOUS
 62
     0
 10
1.475
 20
-90.01875
  1
64
 40
3.0
 50
90.0
 72
     5
 11
1.475
 21
-86.83125
  0
ENDBLK
  0
BLOCK
  2
*DIM_0009
 70
    65
 10
0.0
 20
0.0
  0
LINE
  8
寸法
  6
BYBLOCK
 62
     0
 10
-49.754005
 20
-58.226435
 11
-1.52438
 21
-58.226435
  0
LINE
  8
寸法
  6
BYBLOCK
 62
     0
 10
-1.52438
 20
-86.813382
 11
-1.52438
 21
-58.226435
  0
POINT
  8
寸法
 62
     0
 10
-1.52438
 20
-58.226435
  0
TEXT
  7
TextStyle03
  8
寸法
  6
CONTINUOUS
 62
     0
 10
-1.9
 20
-76.65
  1
571.7
 40
3.0
 50
90.0
 72
     5
 11
-1.9
 21
-68.4
  0
ENDBLK
  0
BLOCK
  2
*DIM_0010
 70
    65
 10
0.0
 20
0.0
  0
LINE
  8
寸法
  6
BYBLOCK
 62
     0
 10
-42.10062
 20
-58.226435
 11
-41.154958
 21
-58.226435
  0
LINE
  8
寸法
  6
BYBLOCK
 62
     0
 10
-47.254005
 20
-60.7264
 11
-41.154958
 21
-60.7264
  0
LINE
  8
寸法
  6
BYBLOCK
 62
     0
 10
-41.154958
 20
-58.226435
 11
-41.154958
 21
-60.7264
  0
POINT
  8
寸法
 62
     0
 10
-41.154958
 20
-58.226435
  0
POINT
  8
寸法
 62
     0
 10
-41.154958
 20
-60.7264
  0
TEXT
  7
TextStyle03
  8
寸法
  6
CONTINUOUS
 62
     0
 10
-38.175
 20
-61.09375
  1
50
 40
3.0
 50
90.0
 72
     5
 11
-38.175
 21
-57.90625
  0
ENDBLK
  0
BLOCK
  2
*DIM_0011
 70
    65
 10
0.0
 20
0.0
  0
LINE
  8
寸法
  6
BYBLOCK
 62
     0
 10
-22.379005
 20
-85.813382
 11
-22.379005
 21
-33.377287
  0
LINE
  8
寸法
  6
BYBLOCK
 62
     0
 10
-28.254005
 20
-33.377287
 11
-22.379005
 21
-33.377287
  0
POINT
  8
寸法
 62
     0
 10
-28.254005
 20
-33.377287
  0
POINT
  8
寸法
 62
     0
 10
-22.379005
 20
-33.377287
  0
TEXT
  7
TextStyle03
  8
寸法
  6
CONTINUOUS
 62
     0
 10
-21.025
 20
-33.025
  1
117.5
 40
3.0
 72
     5
 11
-12.775
 21
-33.025
  0
ENDBLK
  0
BLOCK
  2
*DIM_0012
 70
    65
 10
0.0
 20
0.0
  0
LINE
  8
寸法
  6
BYBLOCK
 62
     0
 10
-79.129005
 20
-85.813382
 11
-79.129005
 21
-33.377287
  0
LINE
  8
寸法
  6
BYBLOCK
 62
     0
 10
-73.254005
 20
-33.377287
 11
-79.129005
 21
-33.377287
  0
POINT
  8
寸法
 62
     0
 10
-73.254005
 20
-33.377287
  0
POINT
  8
寸法
 62
     0
 10
-79.129005
 20
-33.377287
  0
TEXT
  7
TextStyle03
  8
寸法
  6
CONTINUOUS
 62
     0
 10
-88.75
 20
-33.025
  1
117.5
 40
3.0
 72
     5
 11
-80.5
 21
-33.025
  0
ENDBLK
  0
BLOCK
  2
*DIM_0013
 70
    65
 10
0.0
 20
0.0
  0
LINE
  8
寸法
  6
BYBLOCK
 62
     0
 10
115.72738
 20
-80.551825
 11
115.72738
 21
-86.48251
  0
LINE
  8
寸法
  6
BYBLOCK
 62
     0
 10
163.21221
 20
-80.551825
 11
163.21221
 21
-86.48251
  0
LINE
  8
寸法
  6
BYBLOCK
 62
     0
 10
115.72738
 20
-86.48251
 11
163.21221
 21
-86.48251
  0
POINT
  8
寸法
 62
     0
 10
115.72738
 20
-86.48251
  0
POINT
  8
寸法
 62
     0
 10
163.21221
 20
-86.48251
  0
TEXT
  7
TextStyle03
  8
寸法
  6
CONTINUOUS
 62
     0
 10
135.35
 20
-86.1
  1
949.7
 40
3.0
 72
     5
 11
143.6
 21
-86.1
  0
ENDBLK
  0
BLOCK
  2
*DIM_0014
 70
    65
 10
0.0
 20
0.0
  0
LINE
  8
寸法
  6
BYBLOCK
 62
     0
 10
166.21221
 20
-77.551825
 11
170.923935
 21
-77.551825
  0
LINE
  8
寸法
  6
BYBLOCK
 62
     0
 10
142.469795
 20
-43.974965
 11
170.923935
 21
-43.974965
  0
LINE
  8
寸法
  6
BYBLOCK
 62
     0
 10
170.923935
 20
-77.551825
 11
170.923935
 21
-43.974965
  0
POINT
  8
寸法
 62
     0
 10
170.923935
 20
-77.551825
  0
POINT
  8
寸法
 62
     0
 10
170.923935
 20
-43.974965
  0
TEXT
  7
TextStyle03
  8
寸法
  6
CONTINUOUS
 62
     0
 10
170.55
 20
-64.875
  1
671.5
 40
3.0
 50
90.0
 72
     5
 11
170.55
 21
-56.625
  0
ENDBLK
  0
ENDSEC
  0
SECTION
  2
ENTITIES
  0
POLYLINE
  8
通り芯
  6
CONTINUOUS
 66
     1
 70
     1
  0
VERTEX
  8
通り芯
 10
-210.0
 20
-148.5
  0
VERTEX
  8
通り芯
 10
210.0
 20
-148.5
  0
VERTEX
  8
通り芯
 10
210.0
 20
148.5
  0
VERTEX
  8
通り芯
 10
-210.0
 20
148.5
  0
SEQEND
  0
INSERT
  2
*GRP_0001
  8
型材断面
  6
CONTINUOUS
 10
0.0
 20
0.0
  0
LINE
  8
型材断面
  6
CONTINUOUS
 10
4.20554
 20
5.837107
 11
1.962095
 21
1.951347
  0
LINE
  8
型材断面
  6
CONTINUOUS
 10
4.20554
 20
5.837107
 11
6.448985
 21
1.951347
  0
LINE
  8
型材断面
  6
CONTINUOUS
 10
6.448985
 20
1.951347
 11
1.962095
 21
1.951347
  0
LINE
  8
型材断面
  6
CONTINUOUS
 10
-4.82834
 20
0.543455
 11
47.82834
 21
0.543455
  0
LINE
  8
型材断面
  6
DASHDOT
 10
-73.254005
 20
6.716028
 11
-28.254005
 21
6.716028
  0
LINE
  8
型材断面
  6
DASHDOT
 10
-73.254005
 20
51.716028
 11
-28.254005
 21
51.716028
  0
LINE
  8
型材断面
  6
DASHDOT
 10
-28.254005
 20
-96.799225
 11
-28.254005
 21
51.716028
  0
LINE
  8
型材断面
  6
DASHDOT
 10
-50.754005
 20
-96.799225
 11
-50.754005
 21
51.716028
  0
LINE
  8
型材断面
  6
DASHDOT
 10
-73.254005
 20
-96.799225
 11
-73.254005
 21
51.716028
  0
LINE
  8
型材断面
  6
DASHDOTX2
 10
-73.254005
 20
29.216028
 11
-28.254005
 21
29.216028
  0
LINE
  8
型材断面
  6
CONTINUOUS
 10
-52.159685
 20
29.216028
 11
-53.254005
 21
30.310345
  0
LINE
  8
型材断面
  6
CONTINUOUS
 10
-53.254005
 20
30.310345
 11
-53.254005
 21
31.716025
  0
LINE
  8
型材断面
  6
CONTINUOUS
 10
-51.848325
 20
31.716028
 11
-53.254005
 21
31.716025
  0
LINE
  8
型材断面
  6
CONTINUOUS
 10
-50.754005
 20
30.621708
 11
-51.848327
 21
31.716028
  0
LINE
  8
型材断面
  6
CONTINUOUS
 10
-50.754005
 20
29.216028
 11
-53.254005
 21
31.716025
  0
LINE
  8
型材断面
  6
CONTINUOUS
 10
-52.159685
 20
29.216028
 11
-53.254005
 21
28.12171
  0
LINE
  8
型材断面
  6
CONTINUOUS
 10
-53.254005
 20
28.12171
 11
-53.254005
 21
26.71603
  0
LINE
  8
型材断面
  6
CONTINUOUS
 10
-51.848325
 20
26.716028
 11
-53.254005
 21
26.71603
  0
LINE
  8
型材断面
  6
CONTINUOUS
 10
-50.754005
 20
27.810347
 11
-51.848327
 21
26.716028
  0
LINE
  8
型材断面
  6
CONTINUOUS
 10
-50.754005
 20
29.216028
 11
-53.254005
 21
26.71603
  0
LINE
  8
型材断面
  6
CONTINUOUS
 10
-49.34832
 20
29.216028
 11
-48.254
 21
28.12171
  0
LINE
  8
型材断面
  6
CONTINUOUS
 10
-48.254
 20
28.12171
 11
-48.254
 21
26.71603
  0
LINE
  8
型材断面
  6
CONTINUOUS
 10
-49.65968
 20
26.716028
 11
-48.254
 21
26.71603
  0
LINE
  8
型材断面
  6
CONTINUOUS
 10
-50.754
 20
27.810347
 11
-49.659678
 21
26.716028
  0
LINE
  8
型材断面
  6
CONTINUOUS
 10
-50.754
 20
29.216028
 11
-48.254
 21
26.71603
  0
LINE
  8
型材断面
  6
CONTINUOUS
 10
-49.34832
 20
29.216028
 11
-48.254
 21
30.310345
  0
LINE
  8
型材断面
  6
CONTINUOUS
 10
-48.254
 20
30.310345
 11
-48.254
 21
31.716025
  0
LINE
  8
型材断面
  6
CONTINUOUS
 10
-49.65968
 20
31.716028
 11
-48.254
 21
31.716025
  0
LINE
  8
型材断面
  6
CONTINUOUS
 10
-50.754
 20
30.621708
 11
-49.659678
 21
31.716028
  0
LINE
  8
型材断面
  6
CONTINUOUS
 10
-50.754
 20
29.216028
 11
-48.254
 21
31.716025
  0
LINE
  8
型材断面
  6
CONTINUOUS
 10
-50.754005
 20
59.739903
 11
-52.99745
 21
63.625662
  0
LINE
  8
型材断面
  6
CONTINUOUS
 10
-50.754005
 20
59.739903
 11
-48.51056
 21
63.625662
  0
LINE
  8
型材断面
  6
CONTINUOUS
 10
-48.51056
 20
63.625662
 11
-52.99745
 21
63.625662
  0
LINE
  8
型材断面
  6
CONTINUOUS
 10
-50.754005
 20
-1.307848
 11
-52.99745
 21
-5.193607
  0
LINE
  8
型材断面
  6
CONTINUOUS
 10
-50.754005
 20
-1.307848
 11
-48.51056
 21
-5.193607
  0
LINE
  8
型材断面
  6
CONTINUOUS
 10
-48.51056
 20
-5.193607
 11
-52.99745
 21
-5.193607
  0
LINE
  8
型材断面
  6
CONTINUOUS
 10
-20.23013
 20
29.216028
 11
-16.34437
 21
31.459473
  0
LINE
  8
型材断面
  6
CONTINUOUS
 10
-20.23013
 20
29.216028
 11
-16.34437
 21
26.972582
  0
LINE
  8
型材断面
  6
CONTINUOUS
 10
-16.34437
 20
26.972582
 11
-16.34437
 21
31.459473
  0
LINE
  8
型材断面
  6
CONTINUOUS
 10
-81.27788
 20
29.216028
 11
-85.16364
 21
31.459473
  0
LINE
  8
型材断面
  6
CONTINUOUS
 10
-81.27788
 20
29.216028
 11
-85.16364
 21
26.972582
  0
LINE
  8
型材断面
  6
CONTINUOUS
 10
-85.16364
 20
26.972582
 11
-85.16364
 21
31.459473
  0
LINE
  8
型材断面
  6
CONTINUOUS
 10
-4.82834
 20
-6.463655
 11
47.82834
 21
-6.463655
  0
LINE
  8
型材断面
  6
CONTINUOUS
 10
-22.379005
 20
-86.813382
 11
-22.290708
 21
-86.725085
  0
LINE
  8
型材断面
  6
CONTINUOUS
 62
    47
 10
-23.229007
 20
-90.01338
 11
-23.229007
 21
-90.788382
  0
LINE
  8
型材断面
  6
CONTINUOUS
 62
    47
 10
-50.754005
 20
-90.788382
 11
-23.229007
 21
-90.788382
  0
LINE
  8
型材断面
  6
CONTINUOUS
 62
    47
 10
-22.379005
 20
-86.813382
 11
-22.379005
 21
-90.01338
  0
LINE
  8
型材断面
  6
CONTINUOUS
 62
    47
 10
-50.754005
 20
-90.01338
 11
-22.379005
 21
-90.01338
  0
LINE
  8
型材断面
  6
CONTINUOUS
 10
-50.754005
 20
-86.813382
 11
-22.379005
 21
-86.813382
  0
LINE
  8
型材断面
  6
CONTINUOUS
 10
-79.129005
 20
-86.813382
 11
-79.217303
 21
-86.725085
  0
LINE
  8
型材断面
  6
CONTINUOUS
 62
    47
 10
-78.279003
 20
-90.01338
 11
-78.279003
 21
-90.788382
  0
LINE
  8
型材断面
  6
CONTINUOUS
 62
    47
 10
-50.754005
 20
-90.788382
 11
-78.279003
 21
-90.788382
  0
LINE
  8
型材断面
  6
CONTINUOUS
 62
    47
 10
-79.129005
 20
-86.813382
 11
-79.129005
 21
-90.01338
  0
LINE
  8
型材断面
  6
CONTINUOUS
 62
    47
 10
-50.754005
 20
-90.01338
 11
-79.129005
 21
-90.01338
  0
LINE
  8
型材断面
  6
CONTINUOUS
 10
-50.754005
 20
-86.813382
 11
-79.129005
 21
-86.813382
  0
LINE
  8
型材断面
  6
CONTINUOUS
 10
-50.754005
 20
-58.226435
 11
-50.754005
 21
-59.527318
  0
LINE
  8
型材断面
  6
CONTINUOUS
 10
-50.754005
 20
-58.226435
 11
-50.754005
 21
-59.527318
  0
LINE
  8
型材断面
  6
CONTINUOUS
 10
-50.754005
 20
-58.226435
 11
-50.754005
 21
-59.527318
  0
LINE
  8
型材断面
  6
CONTINUOUS
 10
-50.754005
 20
-58.226435
 11
-50.754005
 21
-59.527318
  0
LINE
  8
型材断面
  6
CONTINUOUS
 10
-50.754005
 20
-58.2264
 11
-53.254005
 21
-60.7264
  0
LINE
  8
型材断面
  6
CONTINUOUS
 10
-50.754005
 20
-59.632082
 11
-51.848325
 21
-60.7264
  0
LINE
  8
型材断面
  6
CONTINUOUS
 10
-53.254005
 20
-60.7264
 11
-51.848325
 21
-60.7264
  0
LINE
  8
型材断面
  6
CONTINUOUS
 10
-48.254005
 20
-60.7264
 11
-49.659685
 21
-60.7264
  0
LINE
  8
型材断面
  6
CONTINUOUS
 10
-50.754005
 20
-59.632082
 11
-49.659685
 21
-60.7264
  0
LINE
  8
型材断面
  6
CONTINUOUS
 10
-50.754005
 20
-58.2264
 11
-48.254005
 21
-60.7264
  0
LINE
  8
型材断面
  6
CONTINUOUS
 10
-23.46794
 20
-86.813382
 11
-49.55492
 21
-60.7264
  0
LINE
  8
型材断面
  6
CONTINUOUS
 10
-22.290708
 20
-86.725085
 11
-48.289387
 21
-60.7264
  0
LINE
  8
型材断面
  6
CONTINUOUS
 10
-78.04007
 20
-86.813382
 11
-51.95309
 21
-60.7264
  0
LINE
  8
型材断面
  6
CONTINUOUS
 10
-79.217303
 20
-86.725085
 11
-53.218623
 21
-60.7264
  0
LINE
  8
型材断面
  6
CONTINUOUS
 10
-48.254005
 20
27.902465
 11
-22.379005
 21
2.027468
  0
LINE
  8
型材断面
  6
CONTINUOUS
 10
-49.440442
 20
26.716028
 11
-23.565442
 21
0.841028
  0
LINE
  8
型材断面
  6
CONTINUOUS
 10
-48.254005
 20
26.71603
 11
-22.379005
 21
0.841028
  0
LINE
  8
型材断面
  6
CONTINUOUS
 10
-22.379005
 20
0.841028
 11
-22.379005
 21
29.216028
  0
LINE
  8
型材断面
  6
CONTINUOUS
 10
-22.379005
 20
22.141028
 11
-22.379005
 21
29.216028
  0
LINE
  8
型材断面
  6
CONTINUOUS
 10
-22.379005
 20
0.841028
 11
-50.754005
 21
0.841028
  0
LINE
  8
型材断面
  6
CONTINUOUS
 10
-53.254005
 20
27.902465
 11
-79.129005
 21
2.027468
  0
LINE
  8
型材断面
  6
CONTINUOUS
 10
-52.067568
 20
26.716028
 11
-77.942568
 21
0.841028
  0
LINE
  8
型材断面
  6
CONTINUOUS
 10
-53.254005
 20
26.71603
 11
-79.129005
 21
0.841028
  0
LINE
  8
型材断面
  6
CONTINUOUS
 10
-79.129005
 20
0.841028
 11
-79.129005
 21
29.216028
  0
LINE
  8
型材断面
  6
CONTINUOUS
 10
-79.129005
 20
22.141028
 11
-79.129005
 21
29.216028
  0
LINE
  8
型材断面
  6
CONTINUOUS
 10
-79.129005
 20
0.841028
 11
-50.754005
 21
0.841028
  0
LINE
  8
型材断面
  6
CONTINUOUS
 10
-53.254005
 20
30.52959
 11
-79.129005
 21
56.404587
  0
LINE
  8
型材断面
  6
CONTINUOUS
 10
-52.067568
 20
31.716028
 11
-77.942568
 21
57.591028
  0
LINE
  8
型材断面
  6
CONTINUOUS
 10
-53.254005
 20
31.716025
 11
-79.129005
 21
57.591028
  0
LINE
  8
型材断面
  6
CONTINUOUS
 10
-79.129005
 20
57.591028
 11
-79.129005
 21
29.216028
  0
LINE
  8
型材断面
  6
CONTINUOUS
 10
-79.129005
 20
36.291028
 11
-79.129005
 21
29.216028
  0
LINE
  8
型材断面
  6
CONTINUOUS
 10
-79.129005
 20
57.591028
 11
-50.754005
 21
57.591028
  0
LINE
  8
型材断面
  6
CONTINUOUS
 10
-48.254005
 20
30.52959
 11
-22.379005
 21
56.404587
  0
LINE
  8
型材断面
  6
CONTINUOUS
 10
-49.440442
 20
31.716028
 11
-23.565442
 21
57.591028
  0
LINE
  8
型材断面
  6
CONTINUOUS
 10
-48.254005
 20
31.716025
 11
-22.379005
 21
57.591028
  0
LINE
  8
型材断面
  6
CONTINUOUS
 10
-22.379005
 20
57.591028
 11
-22.379005
 21
29.216028
  0
LINE
  8
型材断面
  6
CONTINUOUS
 10
-22.379005
 20
36.291028
 11
-22.379005
 21
29.216028
  0
LINE
  8
型材断面
  6
CONTINUOUS
 10
-22.379005
 20
57.591028
 11
-50.754005
 21
57.591028
  0
LINE
  8
型材断面
  6
CONTINUOUS
 10
97.6101
 20
-46.632002
 11
121.541722
 21
-46.632002
  0
LINE
  8
ガラス
  6
CONTINUOUS
 10
-48.756737
 20
15.729895
 11
-52.629373
 21
11.85726
  0
LINE
  8
ガラス
  6
CONTINUOUS
 10
-49.63706
 20
14.131538
 11
-51.031015
 21
12.737582
  0
LINE
  8
ガラス
  6
CONTINUOUS
 10
-50.355095
 20
14.849573
 11
-51.74905
 21
13.455617
  0
LINE
  8
ガラス
  6
CONTINUOUS
 10
-32.700663
 20
31.1417
 11
-36.573297
 21
27.269065
  0
LINE
  8
ガラス
  6
CONTINUOUS
 10
-33.580985
 20
29.543342
 11
-34.97494
 21
28.149388
  0
LINE
  8
ガラス
  6
CONTINUOUS
 10
-34.29902
 20
30.261377
 11
-35.692975
 21
28.867423
  0
LINE
  8
ガラス
  6
CONTINUOUS
 10
-64.94476
 20
31.1417
 11
-68.817395
 21
27.269065
  0
LINE
  8
ガラス
  6
CONTINUOUS
 10
-65.825083
 20
29.543342
 11
-67.219038
 21
28.149388
  0
LINE
  8
ガラス
  6
CONTINUOUS
 10
-66.543117
 20
30.261377
 11
-67.937072
 21
28.867423
  0
LINE
  8
ガラス
  6
CONTINUOUS
 10
-48.756737
 20
-75.052225
 11
-52.629373
 21
-78.92486
  0
LINE
  8
ガラス
  6
CONTINUOUS
 10
-49.63706
 20
-76.650583
 11
-51.031015
 21
-78.044538
  0
LINE
  8
ガラス
  6
CONTINUOUS
 10
-50.355095
 20
-75.932547
 11
-51.74905
 21
-77.326502
  0
LINE
  8
ガラス
  6
CONTINUOUS
 10
-48.756737
 20
47.90368
 11
-52.629373
 21
44.031045
  0
LINE
  8
ガラス
  6
CONTINUOUS
 10
-49.63706
 20
46.305322
 11
-51.031015
 21
44.911368
  0
LINE
  8
ガラス
  6
CONTINUOUS
 10
-50.355095
 20
47.023358
 11
-51.74905
 21
45.629402
  0
LINE
  8
ゴム等
  6
CONTINUOUS
 10
-28.502303
 20
-85.153625
 11
-26.541555
 21
-85.65747
  0
LINE
  8
ゴム等
  6
CONTINUOUS
 10
-26.541555
 20
-85.65747
 11
-26.182783
 21
-85.73505
  0
LINE
  8
ゴム等
  6
CONTINUOUS
 10
-26.182783
 20
-85.73505
 11
-23.46794
 21
-86.813382
  0
LINE
  8
ゴム等
  6
CONTINUOUS
 10
-50.754005
 20
-85.153625
 11
-28.502303
 21
-85.153625
  0
LINE
  8
ゴム等
  6
CONTINUOUS
 10
-50.754005
 20
-85.73505
 11
-26.239647
 21
-85.73505
  0
LINE
  8
ゴム等
  6
CONTINUOUS
 10
-50.754005
 20
-85.65747
 11
-26.541555
 21
-85.65747
  0
LINE
  8
ゴム等
  6
CONTINUOUS
 10
-28.502303
 20
-85.153625
 11
-50.754005
 21
-62.901922
  0
LINE
  8
ゴム等
  6
CONTINUOUS
 10
-26.541555
 20
-85.65747
 11
-50.754005
 21
-61.44502
  0
LINE
  8
ゴム等
  6
CONTINUOUS
 10
-26.182783
 20
-85.73505
 11
-50.754005
 21
-61.163828
  0
LINE
  8
ゴム等
  6
CONTINUOUS
 10
-73.005707
 20
-85.153625
 11
-74.966455
 21
-85.65747
  0
LINE
  8
ゴム等
  6
CONTINUOUS
 10
-74.966455
 20
-85.65747
 11
-75.325227
 21
-85.73505
  0
LINE
  8
ゴム等
  6
CONTINUOUS
 10
-75.325227
 20
-85.73505
 11
-78.04007
 21
-86.813382
  0
LINE
  8
ゴム等
  6
CONTINUOUS
 10
-50.754005
 20
-85.153625
 11
-73.005707
 21
-85.153625
  0
LINE
  8
ゴム等
  6
CONTINUOUS
 10
-50.754005
 20
-85.73505
 11
-75.268362
 21
-85.73505
  0
LINE
  8
ゴム等
  6
CONTINUOUS
 10
-50.754005
 20
-85.65747
 11
-74.966455
 21
-85.65747
  0
LINE
  8
ゴム等
  6
CONTINUOUS
 10
-73.005707
 20
-85.153625
 11
-50.754005
 21
-62.901922
  0
LINE
  8
ゴム等
  6
CONTINUOUS
 10
-74.966455
 20
-85.65747
 11
-50.754005
 21
-61.44502
  0
LINE
  8
ゴム等
  6
CONTINUOUS
 10
-75.325227
 20
-85.73505
 11
-50.754005
 21
-61.163828
  0
LINE
  8
ゴム等
  6
CONTINUOUS
 10
-50.754005
 20
-59.102318
 11
-50.754005
 21
-62.476923
  0
LINE
  8
ゴム等
  6
CONTINUOUS
 10
-50.754005
 20
-59.102318
 11
-50.754005
 21
-62.476923
  0
LINE
  8
ゴム等
  6
CONTINUOUS
 10
-50.754005
 20
-59.102318
 11
-50.754005
 21
-62.476923
  0
LINE
  8
ゴム等
  6
CONTINUOUS
 10
-50.754005
 20
-59.102318
 11
-50.754005
 21
-62.476923
  0
LINE
  8
ゴム等
  6
CONTINUOUS
 10
-28.45039
 20
3.03235
 11
-26.541405
 21
2.071808
  0
LINE
  8
ゴム等
  6
CONTINUOUS
 10
-26.541405
 20
2.071808
 11
-26.263177
 21
1.898148
  0
LINE
  8
ゴム等
  6
CONTINUOUS
 10
-26.18265
 20
1.884013
 11
-23.565442
 21
0.841028
  0
LINE
  8
ゴム等
  6
CONTINUOUS
 10
-24.570325
 20
6.912413
 11
-23.609782
 21
5.00343
  0
LINE
  8
ゴム等
  6
CONTINUOUS
 10
-23.609782
 20
5.00343
 11
-23.436122
 21
4.725202
  0
LINE
  8
ゴム等
  6
CONTINUOUS
 10
-23.421987
 20
4.644675
 11
-22.379005
 21
2.027468
  0
LINE
  8
ゴム等
  6
CONTINUOUS
 10
-46.87394
 20
29.216028
 11
-24.570325
 21
6.912413
  0
LINE
  8
ゴム等
  6
CONTINUOUS
 10
-47.82238
 20
29.216028
 11
-23.609782
 21
5.00343
  0
LINE
  8
ゴム等
  6
CONTINUOUS
 10
-47.99334
 20
29.216028
 11
-23.43664
 21
4.659327
  0
LINE
  8
ゴム等
  6
CONTINUOUS
 10
-50.754005
 20
25.335965
 11
-28.45039
 21
3.03235
  0
LINE
  8
ゴム等
  6
CONTINUOUS
 10
-50.754005
 20
26.284408
 11
-26.541405
 21
2.071808
  0
LINE
  8
ゴム等
  6
CONTINUOUS
 10
-50.754005
 20
26.455367
 11
-26.197305
 21
1.898668
  0
LINE
  8
ゴム等
  6
CONTINUOUS
 10
-24.570325
 20
6.912413
 11
-24.570325
 21
29.216028
  0
LINE
  8
ゴム等
  6
CONTINUOUS
 10
-23.609782
 20
5.00343
 11
-23.609782
 21
29.216028
  0
LINE
  8
ゴム等
  6
CONTINUOUS
 10
-23.421987
 20
4.644675
 11
-23.421987
 21
29.216028
  0
LINE
  8
ゴム等
  6
CONTINUOUS
 10
-24.570325
 20
22.141028
 11
-24.570325
 21
29.216028
  0
LINE
  8
ゴム等
  6
CONTINUOUS
 10
-23.609782
 20
22.141028
 11
-23.609782
 21
29.216028
  0
LINE
  8
ゴム等
  6
CONTINUOUS
 10
-23.421987
 20
22.141028
 11
-23.421987
 21
29.216028
  0
LINE
  8
ゴム等
  6
CONTINUOUS
 10
-28.45039
 20
3.03235
 11
-50.754005
 21
3.03235
  0
LINE
  8
ゴム等
  6
CONTINUOUS
 10
-26.18265
 20
1.884013
 11
-50.754005
 21
1.884013
  0
LINE
  8
ゴム等
  6
CONTINUOUS
 10
-26.541405
 20
2.071808
 11
-50.754005
 21
2.071808
  0
LINE
  8
ゴム等
  6
CONTINUOUS
 10
-73.05762
 20
3.03235
 11
-74.966605
 21
2.071808
  0
LINE
  8
ゴム等
  6
CONTINUOUS
 10
-74.966605
 20
2.071808
 11
-75.244833
 21
1.898148
  0
LINE
  8
ゴム等
  6
CONTINUOUS
 10
-75.32536
 20
1.884013
 11
-77.942568
 21
0.841028
  0
LINE
  8
ゴム等
  6
CONTINUOUS
 10
-76.937685
 20
6.912413
 11
-77.898228
 21
5.00343
  0
LINE
  8
ゴム等
  6
CONTINUOUS
 10
-77.898228
 20
5.00343
 11
-78.071887
 21
4.725202
  0
LINE
  8
ゴム等
  6
CONTINUOUS
 10
-78.086023
 20
4.644675
 11
-79.129005
 21
2.027468
  0
LINE
  8
ゴム等
  6
CONTINUOUS
 10
-54.63407
 20
29.216028
 11
-76.937685
 21
6.912413
  0
LINE
  8
ゴム等
  6
CONTINUOUS
 10
-53.68563
 20
29.216028
 11
-77.898228
 21
5.00343
  0
LINE
  8
ゴム等
  6
CONTINUOUS
 10
-53.51467
 20
29.216028
 11
-78.07137
 21
4.659327
  0
LINE
  8
ゴム等
  6
CONTINUOUS
 10
-50.754005
 20
25.335965
 11
-73.05762
 21
3.03235
  0
LINE
  8
ゴム等
  6
CONTINUOUS
 10
-50.754005
 20
26.284408
 11
-74.966605
 21
2.071808
  0
LINE
  8
ゴム等
  6
CONTINUOUS
 10
-50.754005
 20
26.455367
 11
-75.310705
 21
1.898668
  0
LINE
  8
ゴム等
  6
CONTINUOUS
 10
-76.937685
 20
6.912413
 11
-76.937685
 21
29.216028
  0
LINE
  8
ゴム等
  6
CONTINUOUS
 10
-77.898228
 20
5.00343
 11
-77.898228
 21
29.216028
  0
LINE
  8
ゴム等
  6
CONTINUOUS
 10
-78.086023
 20
4.644675
 11
-78.086023
 21
29.216028
  0
LINE
  8
ゴム等
  6
CONTINUOUS
 10
-76.937685
 20
22.141028
 11
-76.937685
 21
29.216028
  0
LINE
  8
ゴム等
  6
CONTINUOUS
 10
-77.898228
 20
22.141028
 11
-77.898228
 21
29.216028
  0
LINE
  8
ゴム等
  6
CONTINUOUS
 10
-78.086023
 20
22.141028
 11
-78.086023
 21
29.216028
  0
LINE
  8
ゴム等
  6
CONTINUOUS
 10
-73.05762
 20
3.03235
 11
-50.754005
 21
3.03235
  0
LINE
  8
ゴム等
  6
CONTINUOUS
 10
-75.32536
 20
1.884013
 11
-50.754005
 21
1.884013
  0
LINE
  8
ゴム等
  6
CONTINUOUS
 10
-74.966605
 20
2.071808
 11
-50.754005
 21
2.071808
  0
LINE
  8
ゴム等
  6
CONTINUOUS
 10
-73.05762
 20
55.399705
 11
-74.966605
 21
56.360247
  0
LINE
  8
ゴム等
  6
CONTINUOUS
 10
-74.966605
 20
56.360247
 11
-75.244833
 21
56.533907
  0
LINE
  8
ゴム等
  6
CONTINUOUS
 10
-75.32536
 20
56.548042
 11
-77.942568
 21
57.591028
  0
LINE
  8
ゴム等
  6
CONTINUOUS
 10
-76.937685
 20
51.519643
 11
-77.898228
 21
53.428625
  0
LINE
  8
ゴム等
  6
CONTINUOUS
 10
-77.898228
 20
53.428625
 11
-78.071887
 21
53.706853
  0
LINE
  8
ゴム等
  6
CONTINUOUS
 10
-78.086023
 20
53.78738
 11
-79.129005
 21
56.404587
  0
LINE
  8
ゴム等
  6
CONTINUOUS
 10
-54.63407
 20
29.216028
 11
-76.937685
 21
51.519643
  0
LINE
  8
ゴム等
  6
CONTINUOUS
 10
-53.68563
 20
29.216028
 11
-77.898228
 21
53.428625
  0
LINE
  8
ゴム等
  6
CONTINUOUS
 10
-53.51467
 20
29.216028
 11
-78.07137
 21
53.772727
  0
LINE
  8
ゴム等
  6
CONTINUOUS
 10
-50.754005
 20
33.09609
 11
-73.05762
 21
55.399705
  0
LINE
  8
ゴム等
  6
CONTINUOUS
 10
-50.754005
 20
32.147647
 11
-74.966605
 21
56.360247
  0
LINE
  8
ゴム等
  6
CONTINUOUS
 10
-50.754005
 20
31.976687
 11
-75.310705
 21
56.533388
  0
LINE
  8
ゴム等
  6
CONTINUOUS
 10
-76.937685
 20
51.519643
 11
-76.937685
 21
29.216028
  0
LINE
  8
ゴム等
  6
CONTINUOUS
 10
-77.898228
 20
53.428625
 11
-77.898228
 21
29.216028
  0
LINE
  8
ゴム等
  6
CONTINUOUS
 10
-78.086023
 20
53.78738
 11
-78.086023
 21
29.216028
  0
LINE
  8
ゴム等
  6
CONTINUOUS
 10
-76.937685
 20
36.291028
 11
-76.937685
 21
29.216028
  0
LINE
  8
ゴム等
  6
CONTINUOUS
 10
-77.898228
 20
36.291028
 11
-77.898228
 21
29.216028
  0
LINE
  8
ゴム等
  6
CONTINUOUS
 10
-78.086023
 20
36.291028
 11
-78.086023
 21
29.216028
  0
LINE
  8
ゴム等
  6
CONTINUOUS
 10
-73.05762
 20
55.399705
 11
-50.754005
 21
55.399705
  0
LINE
  8
ゴム等
  6
CONTINUOUS
 10
-75.32536
 20
56.548042
 11
-50.754005
 21
56.548042
  0
LINE
  8
ゴム等
  6
CONTINUOUS
 10
-74.966605
 20
56.360247
 11
-50.754005
 21
56.360247
  0
LINE
  8
ゴム等
  6
CONTINUOUS
 10
-28.45039
 20
55.399705
 11
-26.541405
 21
56.360247
  0
LINE
  8
ゴム等
  6
CONTINUOUS
 10
-26.541405
 20
56.360247
 11
-26.263177
 21
56.533907
  0
LINE
  8
ゴム等
  6
CONTINUOUS
 10
-26.18265
 20
56.548042
 11
-23.565442
 21
57.591028
  0
LINE
  8
ゴム等
  6
CONTINUOUS
 10
-24.570325
 20
51.519643
 11
-23.609782
 21
53.428625
  0
LINE
  8
ゴム等
  6
CONTINUOUS
 10
-23.609782
 20
53.428625
 11
-23.436122
 21
53.706853
  0
LINE
  8
ゴム等
  6
CONTINUOUS
 10
-23.421987
 20
53.78738
 11
-22.379005
 21
56.404587
  0
LINE
  8
ゴム等
  6
CONTINUOUS
 10
-46.87394
 20
29.216028
 11
-24.570325
 21
51.519643
  0
LINE
  8
ゴム等
  6
CONTINUOUS
 10
-47.82238
 20
29.216028
 11
-23.609782
 21
53.428625
  0
LINE
  8
ゴム等
  6
CONTINUOUS
 10
-47.99334
 20
29.216028
 11
-23.43664
 21
53.772727
  0
LINE
  8
ゴム等
  6
CONTINUOUS
 10
-50.754005
 20
33.09609
 11
-28.45039
 21
55.399705
  0
LINE
  8
ゴム等
  6
CONTINUOUS
 10
-50.754005
 20
32.147647
 11
-26.541405
 21
56.360247
  0
LINE
  8
ゴム等
  6
CONTINUOUS
 10
-50.754005
 20
31.976687
 11
-26.197305
 21
56.533388
  0
LINE
  8
ゴム等
  6
CONTINUOUS
 10
-24.570325
 20
51.519643
 11
-24.570325
 21
29.216028
  0
LINE
  8
ゴム等
  6
CONTINUOUS
 10
-23.609782
 20
53.428625
 11
-23.609782
 21
29.216028
  0
LINE
  8
ゴム等
  6
CONTINUOUS
 10
-23.421987
 20
53.78738
 11
-23.421987
 21
29.216028
  0
LINE
  8
ゴム等
  6
CONTINUOUS
 10
-24.570325
 20
36.291028
 11
-24.570325
 21
29.216028
  0
LINE
  8
ゴム等
  6
CONTINUOUS
 10
-23.609782
 20
36.291028
 11
-23.609782
 21
29.216028
  0
LINE
  8
ゴム等
  6
CONTINUOUS
 10
-23.421987
 20
36.291028
 11
-23.421987
 21
29.216028
  0
LINE
  8
ゴム等
  6
CONTINUOUS
 10
-28.45039
 20
55.399705
 11
-50.754005
 21
55.399705
  0
LINE
  8
ゴム等
  6
CONTINUOUS
 10
-26.18265
 20
56.548042
 11
-50.754005
 21
56.548042
  0
LINE
  8
ゴム等
  6
CONTINUOUS
 10
-26.541405
 20
56.360247
 11
-50.754005
 21
56.360247
  0
TEXT
  7
TextStyle03
  8
文字
  6
CONTINUOUS
 10
8.475
 20
2.275
  1
は排水穴位置を示す
 40
3.0
 72
     5
 11
38.475
 21
2.275
  0
TEXT
  7
TextStyle03
  8
文字
  6
CONTINUOUS
 10
-79.65
 20
74.925
  1
アンカーピッチ
 40
3.0
 72
     5
 11
-56.4
 21
74.925
  0
TEXT
  7
TextStyle03
  8
文字
  6
CONTINUOUS
 10
-103.3
 20
-3.175
  1
アンカーピッチ
 40
3.0
 50
90.0
 72
     5
 11
-103.3
 21
20.075
  0
TEXT
  7
TextStyle03
  8
文字
  6
CONTINUOUS
 10
2.875
 20
-5.075
  1
アンカー数量　６ヶ所
 40
3.0
 72
     5
 11
36.25
 21
-5.075
  0
TEXT
  7
TextStyle03
  8
文字
  6
CONTINUOUS
 10
143.425
 20
-74.3
  1
×４枚
 40
3.0
 72
     5
 11
153.175
 21
-74.3
  0
TEXT
  7
TextStyle03
  8
文字
  6
CONTINUOUS
 10
101.2
 20
-45.375
  1
ガラス寸法
 40
3.0
 72
     5
 11
117.7
 21
-45.375
  0
TEXT
  7
TextStyle03
  8
文字
  6
CONTINUOUS
 10
75.525
 20
91.9
  1
ＮＳコード：ＮＳ４ＧＫ
 40
5.0
 72
     5
 11
136.775
 21
91.9
  0
TEXT
  7
TextStyle03
  8
文字
  6
CONTINUOUS
 10
75.275
 20
113.5
  1
シリーズ：ＤＦ４Ｋ
 40
5.0
 72
     5
 11
125.275
 21
113.5
  0
TEXT
  7
TextStyle03
  8
文字
  6
CONTINUOUS
 10
75.275
 20
107.875
  1
　　　　　四角錘（固定）900×900タイプ
 40
5.0
 72
     5
 11
181.525
 21
107.875
  0
TEXT
  7
TextStyle03
  8
文字
  6
CONTINUOUS
 10
75.275
 20
102.25
  1
図面名　：外観姿図
 40
5.0
 72
     5
 11
125.275
 21
102.25
  0
TEXT
  7
TextStyle03
  8
文字
  6
CONTINUOUS
 10
75.275
 20
96.625
  1
　　　　　　
 40
5.0
 72
     5
 11
108.4
 21
96.625
  0
INSERT
  2
*DIM_0002
  8
寸法
  6
CONTINUOUS
 10
0.0
 20
0.0
  0
INSERT
  2
*DIM_0003
  8
寸法
  6
CONTINUOUS
 10
0.0
 20
0.0
  0
INSERT
  2
*DIM_0004
  8
寸法
  6
CONTINUOUS
 10
0.0
 20
0.0
  0
INSERT
  2
*DIM_0005
  8
寸法
  6
CONTINUOUS
 10
0.0
 20
0.0
  0
INSERT
  2
*DIM_0006
  8
寸法
  6
CONTINUOUS
 10
0.0
 20
0.0
  0
INSERT
  2
*DIM_0007
  8
寸法
  6
CONTINUOUS
 10
0.0
 20
0.0
  0
INSERT
  2
*DIM_0008
  8
寸法
  6
CONTINUOUS
 10
0.0
 20
0.0
  0
INSERT
  2
*DIM_0009
  8
寸法
  6
CONTINUOUS
 10
0.0
 20
0.0
  0
INSERT
  2
*DIM_0010
  8
寸法
  6
CONTINUOUS
 10
0.0
 20
0.0
  0
INSERT
  2
*DIM_0011
  8
寸法
  6
CONTINUOUS
 10
0.0
 20
0.0
  0
INSERT
  2
*DIM_0012
  8
寸法
  6
CONTINUOUS
 10
0.0
 20
0.0
  0
CIRCLE
  8
寸法
  6
CONTINUOUS
 10
-92.272362
 20
29.216028
 40
1.73792
  0
INSERT
  2
*DIM_0013
  8
寸法
  6
CONTINUOUS
 10
0.0
 20
0.0
  0
INSERT
  2
*DIM_0014
  8
寸法
  6
CONTINUOUS
 10
0.0
 20
0.0
  0
LINE
  8
曲げ物
  6
CONTINUOUS
 10
115.72738
 20
-77.551825
 11
139.469795
 21
-43.974965
  0
LINE
  8
曲げ物
  6
CONTINUOUS
 10
139.469795
 20
-43.974965
 11
163.21221
 21
-77.551825
  0
LINE
  8
曲げ物
  6
CONTINUOUS
 10
115.72738
 20
-77.551825
 11
163.21221
 21
-77.551825
  0
ENDSEC
  0
EOF
