  0
SECTION
  2
HEADER
  9
$EXTMIN
 10
-210.0
 20
-148.5
  9
$EXTMAX
 10
210.0
 20
148.5
  9
$PDMODE
 70
    32
  9
$PDSIZE
 40
1.5
  9
$LTSCALE
 40
10.0
  0
ENDSEC
  0
SECTION
  2
TABLES
  0
TABLE
  2
LTYPE
 70
    15
  0
LTYPE
  2
CONTINUOUS
 70
    64
  3
実線
 72
    65
 73
     0
 40
0.0
  0
LTYPE
  2
DASHED
 70
    64
  3
破線A
 72
    65
 73
     2
 40
0.6
 49
0.4
 49
-0.2
  0
LTYPE
  2
DASHEDX2
 70
    64
  3
破線B
 72
    65
 73
     2
 40
1.3
 49
0.9
 49
-0.4
  0
LTYPE
  2
DASHDOT
 70
    64
  3
１点鎖線A
 72
    65
 73
     4
 40
0.5375
 49
0.375
 49
-0.05
 49
0.0625
 49
-0.05
  0
LTYPE
  2
DASHDOTX2
 70
    64
  3
１点鎖線B
 72
    65
 73
     4
 40
1.075
 49
0.75
 49
-0.1
 49
0.125
 49
-0.1
  0
LTYPE
  2
DIVIDE2
 70
    64
  3
２点鎖線A
 72
    65
 73
     6
 40
0.5125
 49
0.3
 49
-0.0375
 49
0.05
 49
-0.0375
 49
0.05
 49
-0.0375
  0
LTYPE
  2
DIVIDE
 70
    64
  3
２点鎖線B
 72
    65
 73
     6
 40
1.05
 49
0.55
 49
-0.1
 49
0.1
 49
-0.1
 49
0.1
 49
-0.1
  0
LTYPE
  2
DOT
 70
    64
  3
点線A
 72
    65
 73
     2
 40
0.1125
 49
0.0625
 49
-0.05
  0
LTYPE
  2
DOTX2
 70
    64
  3
点線B
 72
    65
 73
     2
 40
0.275
 49
0.15
 49
-0.125
  0
LTYPE
  2
CONTINUOUS
 70
    64
  3
実線
 72
    65
 73
     0
 40
0.0
  0
LTYPE
  2
CONTINUOUS
 70
    64
  3
実線
 72
    65
 73
     0
 40
0.0
  0
LTYPE
  2
CONTINUOUS
 70
    64
  3
実線
 72
    65
 73
     0
 40
0.0
  0
LTYPE
  2
CONTINUOUS
 70
    64
  3
実線
 72
    65
 73
     0
 40
0.0
  0
LTYPE
  2
CONTINUOUS
 70
    64
  3
実線
 72
    65
 73
     0
 40
0.0
  0
LTYPE
  2
CONTINUOUS
 70
    64
  3
実線
 72
    65
 73
     0
 40
0.0
  0
ENDTAB
  0
TABLE
  2
LAYER
 70
    34
  0
LAYER
  2
通り芯
 70
     0
 62
    15
  6
CONTINUOUS
  0
LAYER
  2
補助線
 70
     0
 62
    16
  6
DOT
  0
LAYER
  2
躯体
 70
     0
 62
    31
  6
CONTINUOUS
  0
LAYER
  2
型材
 70
     0
 62
    32
  6
CONTINUOUS
  0
LAYER
  2
型材断面
 70
     0
 62
    47
  6
CONTINUOUS
  0
LAYER
  2
ガラス
 70
     0
 62
    48
  6
CONTINUOUS
  0
LAYER
  2
ゴム等
 70
     0
 62
    63
  6
CONTINUOUS
  0
LAYER
  2
ボルト／ビス
 70
     0
 62
    64
  6
CONTINUOUS
  0
LAYER
  2
文字
 70
     0
 62
    79
  6
CONTINUOUS
  0
LAYER
  2
寸法
 70
     0
 62
    80
  6
CONTINUOUS
  0
LAYER
  2
ﾊｯﾁﾝｸﾞ
 70
     0
 62
    95
  6
CONTINUOUS
  0
LAYER
  2
別途部材
 70
     0
 62
    96
  6
CONTINUOUS
  0
LAYER
  2
曲げ物
 70
     0
 62
   111
  6
CONTINUOUS
  0
LAYER
  2
鉄骨等
 70
     0
 62
   112
  6
CONTINUOUS
  0
LAYER
  2
St
 70
     0
 62
   127
  6
CONTINUOUS
  0
LAYER
  2
その他部品等
 70
     0
 62
   128
  6
CONTINUOUS
  0
LAYER
  2
ｶﾞｽｹｯﾄ
 70
     0
 62
   143
  6
CONTINUOUS
  0
LAYER
  2
ｽｹｯﾁ
 70
     0
 62
    14
  6
CONTINUOUS
  0
LAYER
  2
0
 70
     0
 62
    17
  6
CONTINUOUS
  0
LAYER
  2
1
 70
     0
 62
    30
  6
CONTINUOUS
  0
LAYER
  2
4
 70
     0
 62
    33
  6
CONTINUOUS
  0
LAYER
  2
ﾚｲﾔ3
 70
     0
 62
    46
  6
CONTINUOUS
  0
LAYER
  2
外形線
 70
     0
 62
    49
  6
CONTINUOUS
  0
LAYER
  2
部品
 70
     0
 62
    14
  6
CONTINUOUS
  0
LAYER
  2
サッシ芯
 70
     0
 62
    17
  6
DASHDOTX2
  0
LAYER
  2
寸法線
 70
     0
 62
    62
  6
CONTINUOUS
  0
LAYER
  2
姿図外形線
 70
     0
 62
    65
  6
CONTINUOUS
  0
LAYER
  2
姿補助線
 70
     0
 62
    30
  6
CONTINUOUS
  0
LAYER
  2
透視線
 70
     0
 62
    78
  6
DOT
  0
LAYER
  2
用紙
 70
     0
 62
    81
  6
CONTINUOUS
  0
LAYER
  2
実線図枠
 70
     0
 62
    94
  6
CONTINUOUS
  0
LAYER
  2
補助図枠
 70
     0
 62
    97
  6
CONTINUOUS
  0
LAYER
  2
建具記号
 70
     0
 62
   110
  6
CONTINUOUS
  0
LAYER
  2
補助文字
 70
     0
 62
   113
  6
CONTINUOUS
  0
ENDTAB
  0
TABLE
  2
STYLE
 70
    10
  0
STYLE
  2
STANDARD
 70
     0
 40
1.0
 41
1.0
 42
1.0
 50
0.0
 71
     0
  3
TXT
  4
BIGFONT
  0
STYLE
  2
TATE
 70
     4
 40
1.0
 41
1.0
 42
1.0
 50
0.0
 71
     0
  3
TXT
  4
BIGFONT
  0
STYLE
  2
TextStyle03
 70
     0
 40
1.0
 41
1.0
 42
1.0
 50
0.0
 71
     0
  3
MONOTXT
  4
BIGFONT
  0
STYLE
  2
TextStyle04
 70
     0
 40
1.0
 41
1.0
 42
1.0
 50
0.0
 71
     0
  3
MONOTXT
  4
BIGFONT
  0
STYLE
  2
TextStyle05
 70
     0
 40
1.0
 41
1.0
 42
1.0
 50
0.0
 71
     0
  3
MONOTXT
  4
BIGFONT
  0
STYLE
  2
TextStyle06
 70
     0
 40
1.0
 41
1.0
 42
1.0
 50
0.0
 71
     0
  3
MONOTXT
  4
BIGFONT
  0
STYLE
  2
TextStyle07
 70
     0
 40
1.0
 41
1.0
 42
1.0
 50
0.0
 71
     0
  3
MONOTXT
  4
BIGFONT
  0
STYLE
  2
TextStyle08
 70
     0
 40
1.0
 41
1.0
 42
1.0
 50
0.0
 71
     0
  3
MONOTXT
  4
BIGFONT
  0
STYLE
  2
TextStyle09
 70
     0
 40
1.0
 41
1.0
 42
1.0
 50
0.0
 71
     0
  3
MONOTXT
  4
BIGFONT
  0
STYLE
  2
TextStyle10
 70
     0
 40
1.0
 41
1.0
 42
1.0
 50
0.0
 71
     0
  3
MONOTXT
  4
BIGFONT
  0
ENDTAB
  0
ENDSEC
  0
SECTION
  2
BLOCKS
  0
BLOCK
  2
*GRP_0001
 70
    65
 10
0.0
 20
0.0
  0
LINE
  8
型材断面
  6
CONTINUOUS
 10
195.0
 20
133.5
 11
195.0
 21
-133.5
  0
LINE
  8
型材断面
  6
CONTINUOUS
 10
195.0
 20
-133.5
 11
-185.0
 21
-133.5
  0
LINE
  8
型材断面
  6
CONTINUOUS
 10
-185.0
 20
-133.5
 11
-185.0
 21
133.5
  0
LINE
  8
型材断面
  6
CONTINUOUS
 10
195.0
 20
133.5
 11
-185.0
 21
133.5
  0
LINE
  8
型材断面
  6
CONTINUOUS
 10
145.0
 20
-133.5
 11
145.0
 21
-118.5
  0
LINE
  8
型材断面
  6
CONTINUOUS
 10
195.0
 20
-118.5
 11
145.0
 21
-118.5
  0
ENDBLK
  0
BLOCK
  2
*DIM_0002
 70
    65
 10
0.0
 20
0.0
  0
LINE
  8
寸法
  6
BYBLOCK
 62
     0
 10
-57.1517
 20
-41.801397
 11
-57.1517
 21
-35.188047
  0
LINE
  8
寸法
  6
BYBLOCK
 62
     0
 10
-52.1517
 20
-41.801397
 11
-52.1517
 21
-35.188047
  0
LINE
  8
寸法
  6
BYBLOCK
 62
     0
 10
-57.1517
 20
-35.188047
 11
-52.1517
 21
-35.188047
  0
POINT
  8
寸法
 62
     0
 10
-57.1517
 20
-35.188047
  0
POINT
  8
寸法
 62
     0
 10
-52.1517
 20
-35.188047
  0
TEXT
  7
TextStyle03
  8
寸法
  6
CONTINUOUS
 62
     0
 10
-57.1125
 20
-34.825
  1
100
 40
3.0
 72
     5
 11
-52.2375
 21
-34.825
  0
ENDBLK
  0
BLOCK
  2
*DIM_0003
 70
    65
 10
0.0
 20
0.0
  0
LINE
  8
寸法
  6
CONTINUOUS
 62
     0
 10
-94.6517
 20
-28.204485
 11
-94.6517
 21
-28.702992
  0
LINE
  8
寸法
  6
CONTINUOUS
 62
     0
 10
-14.6517
 20
-28.204485
 11
-14.6517
 21
-28.702992
  0
LINE
  8
寸法
  6
CONTINUOUS
 62
     0
 10
-94.6517
 20
-28.702992
 11
-14.6517
 21
-28.702992
  0
POINT
  8
寸法
 62
     0
 10
-94.6517
 20
-28.702992
  0
POINT
  8
寸法
 62
     0
 10
-14.6517
 20
-28.702992
  0
TEXT
  7
TextStyle03
  8
寸法
  6
CONTINUOUS
 62
     0
 10
-66.39375
 20
-28.35
  1
呼称寸法　1600
 40
3.0
 72
     5
 11
-42.95625
 21
-28.35
  0
ENDBLK
  0
BLOCK
  2
*DIM_0004
 70
    65
 10
0.0
 20
0.0
  0
LINE
  8
寸法
  6
BYBLOCK
 62
     0
 10
-57.1517
 20
48.141052
 11
-57.1517
 21
55.813458
  0
LINE
  8
寸法
  6
BYBLOCK
 62
     0
 10
-52.1517
 20
48.141052
 11
-52.1517
 21
55.813458
  0
LINE
  8
寸法
  6
BYBLOCK
 62
     0
 10
-57.1517
 20
55.813458
 11
-52.1517
 21
55.813458
  0
POINT
  8
寸法
 62
     0
 10
-57.1517
 20
55.813458
  0
POINT
  8
寸法
 62
     0
 10
-52.1517
 20
55.813458
  0
TEXT
  7
TextStyle03
  8
寸法
  6
CONTINUOUS
 62
     0
 10
-57.1125
 20
56.175
  1
100
 40
3.0
 72
     5
 11
-52.2375
 21
56.175
  0
ENDBLK
  0
BLOCK
  2
*DIM_0005
 70
    65
 10
0.0
 20
0.0
  0
LINE
  8
寸法
  6
BYBLOCK
 62
     0
 10
-7.7767
 20
-90.01338
 11
12.596227
 21
-90.01338
  0
LINE
  8
寸法
  6
BYBLOCK
 62
     0
 10
-7.7767
 20
-86.813382
 11
12.596227
 21
-86.813382
  0
LINE
  8
寸法
  6
BYBLOCK
 62
     0
 10
12.596227
 20
-90.01338
 11
12.596227
 21
-86.813382
  0
POINT
  8
寸法
 62
     0
 10
12.596227
 20
-90.01338
  0
POINT
  8
寸法
 62
     0
 10
12.596227
 20
-86.813382
  0
TEXT
  7
TextStyle03
  8
寸法
  6
CONTINUOUS
 62
     0
 10
15.575
 20
-90.01875
  1
64
 40
3.0
 50
90.0
 72
     5
 11
15.575
 21
-86.83125
  0
ENDBLK
  0
BLOCK
  2
*DIM_0006
 70
    65
 10
0.0
 20
0.0
  0
LINE
  8
寸法
  6
BYBLOCK
 62
     0
 10
-53.6517
 20
-40.726397
 11
12.596227
 21
-40.726397
  0
LINE
  8
寸法
  6
BYBLOCK
 62
     0
 10
12.596227
 20
-86.813382
 11
12.596227
 21
-40.726397
  0
POINT
  8
寸法
 62
     0
 10
12.596227
 20
-40.726397
  0
TEXT
  7
TextStyle03
  8
寸法
  6
CONTINUOUS
 62
     0
 10
12.2
 20
-67.9
  1
921.7
 40
3.0
 50
90.0
 72
     5
 11
12.2
 21
-59.65
  0
ENDBLK
  0
BLOCK
  2
*DIM_0007
 70
    65
 10
0.0
 20
0.0
  0
LINE
  8
寸法
  6
BYBLOCK
 62
     0
 10
-44.674633
 20
-40.726397
 11
-43.95324
 21
-40.726397
  0
LINE
  8
寸法
  6
BYBLOCK
 62
     0
 10
-51.1517
 20
-43.226362
 11
-43.95324
 21
-43.226362
  0
LINE
  8
寸法
  6
BYBLOCK
 62
     0
 10
-43.95324
 20
-40.726397
 11
-43.95324
 21
-43.226362
  0
POINT
  8
寸法
 62
     0
 10
-43.95324
 20
-40.726397
  0
POINT
  8
寸法
 62
     0
 10
-43.95324
 20
-43.226362
  0
TEXT
  7
TextStyle03
  8
寸法
  6
CONTINUOUS
 62
     0
 10
-40.975
 20
-43.54375
  1
50
 40
3.0
 50
90.0
 72
     5
 11
-40.975
 21
-40.35625
  0
ENDBLK
  0
BLOCK
  2
*DIM_0008
 70
    65
 10
0.0
 20
0.0
  0
LINE
  8
寸法
  6
BYBLOCK
 62
     0
 10
-8.7767
 20
-85.813382
 11
-8.7767
 21
-28.702992
  0
LINE
  8
寸法
  6
BYBLOCK
 62
     0
 10
-14.6517
 20
-28.702992
 11
-8.7767
 21
-28.702992
  0
POINT
  8
寸法
 62
     0
 10
-14.6517
 20
-28.702992
  0
POINT
  8
寸法
 62
     0
 10
-8.7767
 20
-28.702992
  0
TEXT
  7
TextStyle03
  8
寸法
  6
CONTINUOUS
 62
     0
 10
-7.425
 20
-28.35
  1
117.5
 40
3.0
 72
     5
 11
0.825
 21
-28.35
  0
ENDBLK
  0
BLOCK
  2
*DIM_0009
 70
    65
 10
0.0
 20
0.0
  0
LINE
  8
寸法
  6
BYBLOCK
 62
     0
 10
-100.5267
 20
-85.813382
 11
-100.5267
 21
-28.702992
  0
LINE
  8
寸法
  6
BYBLOCK
 62
     0
 10
-94.6517
 20
-28.702992
 11
-100.5267
 21
-28.702992
  0
POINT
  8
寸法
 62
     0
 10
-94.6517
 20
-28.702992
  0
POINT
  8
寸法
 62
     0
 10
-100.5267
 20
-28.702992
  0
TEXT
  7
TextStyle03
  8
寸法
  6
CONTINUOUS
 62
     0
 10
-110.15
 20
-28.35
  1
117.5
 40
3.0
 72
     5
 11
-101.9
 21
-28.35
  0
ENDBLK
  0
BLOCK
  2
*DIM_0010
 70
    65
 10
0.0
 20
0.0
  0
LINE
  8
寸法
  6
BYBLOCK
 62
     0
 10
-119.2467
 20
64.21603
 11
-130.07
 21
64.21603
  0
LINE
  8
寸法
  6
BYBLOCK
 62
     0
 10
-119.2467
 20
29.21603
 11
-130.07
 21
29.21603
  0
LINE
  8
寸法
  6
BYBLOCK
 62
     0
 10
-130.07
 20
64.21603
 11
-130.07
 21
29.21603
  0
POINT
  8
寸法
 62
     0
 10
-130.07
 20
64.21603
  0
POINT
  8
寸法
 62
     0
 10
-130.07
 20
29.21603
  0
TEXT
  7
TextStyle03
  8
寸法
  6
CONTINUOUS
 62
     0
 10
-130.425
 20
44.2625
  1
700
 40
3.0
 50
90.0
 72
     5
 11
-130.425
 21
49.1375
  0
ENDBLK
  0
BLOCK
  2
*DIM_0011
 70
    65
 10
0.0
 20
0.0
  0
LINE
  8
寸法
  6
BYBLOCK
 62
     0
 10
-84.6517
 20
115.817857
 11
-84.6517
 21
123.593368
  0
LINE
  8
寸法
  6
BYBLOCK
 62
     0
 10
-54.6517
 20
115.817857
 11
-54.6517
 21
123.593368
  0
LINE
  8
寸法
  6
BYBLOCK
 62
     0
 10
-84.6517
 20
123.593368
 11
-54.6517
 21
123.593368
  0
POINT
  8
寸法
 62
     0
 10
-84.6517
 20
123.593368
  0
POINT
  8
寸法
 62
     0
 10
-54.6517
 20
123.593368
  0
TEXT
  7
TextStyle03
  8
寸法
  6
CONTINUOUS
 62
     0
 10
-72.1125
 20
123.95
  1
600
 40
3.0
 72
     5
 11
-67.2375
 21
123.95
  0
ENDBLK
  0
BLOCK
  2
*DIM_0012
 70
    65
 10
0.0
 20
0.0
  0
LINE
  8
寸法
  6
BYBLOCK
 62
     0
 10
-24.6517
 20
115.817857
 11
-24.6517
 21
123.593368
  0
LINE
  8
寸法
  6
BYBLOCK
 62
     0
 10
-54.6517
 20
123.593368
 11
-24.6517
 21
123.593368
  0
POINT
  8
寸法
 62
     0
 10
-24.6517
 20
123.593368
  0
TEXT
  7
TextStyle03
  8
寸法
  6
CONTINUOUS
 62
     0
 10
-42.1125
 20
123.95
  1
600
 40
3.0
 72
     5
 11
-37.2375
 21
123.95
  0
ENDBLK
  0
BLOCK
  2
*DIM_0013
 70
    65
 10
0.0
 20
0.0
  0
LINE
  8
寸法
  6
BYBLOCK
 62
     0
 10
66.883165
 20
-80.399633
 11
66.883165
 21
-93.133975
  0
LINE
  8
寸法
  6
BYBLOCK
 62
     0
 10
149.378162
 20
-80.399633
 11
149.378162
 21
-93.133975
  0
LINE
  8
寸法
  6
BYBLOCK
 62
     0
 10
66.883165
 20
-93.133975
 11
149.378162
 21
-93.133975
  0
POINT
  8
寸法
 62
     0
 10
66.883165
 20
-93.133975
  0
POINT
  8
寸法
 62
     0
 10
149.378162
 20
-93.133975
  0
TEXT
  7
TextStyle03
  8
寸法
  6
CONTINUOUS
 62
     0
 10
103.15625
 20
-92.775
  1
1649.9
 40
3.0
 72
     5
 11
113.09375
 21
-92.775
  0
ENDBLK
  0
BLOCK
  2
*DIM_0014
 70
    65
 10
0.0
 20
0.0
  0
LINE
  8
寸法
  6
BYBLOCK
 62
     0
 10
152.378162
 20
-77.399633
 11
167.5075
 21
-77.399633
  0
LINE
  8
寸法
  6
BYBLOCK
 62
     0
 10
111.130662
 20
-19.067105
 11
167.5075
 21
-19.067105
  0
LINE
  8
寸法
  6
BYBLOCK
 62
     0
 10
167.5075
 20
-77.399633
 11
167.5075
 21
-19.067105
  0
POINT
  8
寸法
 62
     0
 10
167.5075
 20
-77.399633
  0
POINT
  8
寸法
 62
     0
 10
167.5075
 20
-19.067105
  0
TEXT
  7
TextStyle03
  8
寸法
  6
CONTINUOUS
 62
     0
 10
167.125
 20
-53.21875
  1
1166.7
 40
3.0
 50
90.0
 72
     5
 11
167.125
 21
-43.28125
  0
ENDBLK
  0
ENDSEC
  0
SECTION
  2
ENTITIES
  0
POLYLINE
  8
通り芯
  6
CONTINUOUS
 66
     1
 70
     1
  0
VERTEX
  8
通り芯
 10
-210.0
 20
-148.5
  0
VERTEX
  8
通り芯
 10
210.0
 20
-148.5
  0
VERTEX
  8
通り芯
 10
210.0
 20
148.5
  0
VERTEX
  8
通り芯
 10
-210.0
 20
148.5
  0
SEQEND
  0
INSERT
  2
*GRP_0001
  8
型材断面
  6
CONTINUOUS
 10
0.0
 20
0.0
  0
LINE
  8
型材断面
  6
CONTINUOUS
 10
-56.05738
 20
46.71603
 11
-57.1517
 21
45.621712
  0
LINE
  8
型材断面
  6
CONTINUOUS
 10
-57.1517
 20
45.621712
 11
-57.1517
 21
44.216033
  0
LINE
  8
型材断面
  6
CONTINUOUS
 10
-55.74602
 20
44.21603
 11
-57.1517
 21
44.216033
  0
LINE
  8
型材断面
  6
CONTINUOUS
 10
-54.6517
 20
45.31035
 11
-55.746022
 21
44.21603
  0
LINE
  8
型材断面
  6
CONTINUOUS
 10
-54.6517
 20
46.71603
 11
-57.1517
 21
44.216033
  0
LINE
  8
型材断面
  6
DASHDOT
 10
-94.6517
 20
46.71603
 11
-14.6517
 21
46.71603
  0
LINE
  8
型材断面
  6
DASHDOT
 10
-94.6517
 20
6.716028
 11
-14.6517
 21
6.716028
  0
LINE
  8
型材断面
  6
DASHDOT
 10
-94.6517
 20
86.716033
 11
-14.6517
 21
86.716033
  0
LINE
  8
型材断面
  6
DASHDOT
 10
-94.6517
 20
-96.799225
 11
-94.6517
 21
86.716033
  0
LINE
  8
型材断面
  6
DASHDOT
 10
-54.6517
 20
-96.799225
 11
-54.6517
 21
86.716033
  0
LINE
  8
型材断面
  6
DASHDOT
 10
-14.6517
 20
-96.799225
 11
-14.6517
 21
86.716033
  0
LINE
  8
型材断面
  6
CONTINUOUS
 10
-53.24602
 20
46.71603
 11
-52.1517
 21
47.810347
  0
LINE
  8
型材断面
  6
CONTINUOUS
 10
-52.1517
 20
47.810347
 11
-52.1517
 21
49.216028
  0
LINE
  8
型材断面
  6
CONTINUOUS
 10
-53.55738
 20
49.21603
 11
-52.1517
 21
49.216028
  0
LINE
  8
型材断面
  6
CONTINUOUS
 10
-54.6517
 20
48.12171
 11
-53.557377
 21
49.21603
  0
LINE
  8
型材断面
  6
CONTINUOUS
 10
-54.6517
 20
46.71603
 11
-52.1517
 21
49.216028
  0
LINE
  8
型材断面
  6
CONTINUOUS
 10
-56.05738
 20
46.71603
 11
-57.1517
 21
47.810347
  0
LINE
  8
型材断面
  6
CONTINUOUS
 10
-57.1517
 20
47.810347
 11
-57.1517
 21
49.216028
  0
LINE
  8
型材断面
  6
CONTINUOUS
 10
-55.74602
 20
49.21603
 11
-57.1517
 21
49.216028
  0
LINE
  8
型材断面
  6
CONTINUOUS
 10
-54.6517
 20
48.12171
 11
-55.746022
 21
49.21603
  0
LINE
  8
型材断面
  6
CONTINUOUS
 10
-54.6517
 20
46.71603
 11
-57.1517
 21
49.216028
  0
LINE
  8
型材断面
  6
CONTINUOUS
 10
-54.6517
 20
45.31035
 11
-53.557383
 21
44.21603
  0
LINE
  8
型材断面
  6
CONTINUOUS
 10
-53.557383
 20
44.21603
 11
-52.151703
 21
44.21603
  0
LINE
  8
型材断面
  6
CONTINUOUS
 10
-52.1517
 20
45.62171
 11
-52.151703
 21
44.21603
  0
LINE
  8
型材断面
  6
CONTINUOUS
 10
-53.24602
 20
46.71603
 11
-52.1517
 21
45.621708
  0
LINE
  8
型材断面
  6
CONTINUOUS
 10
-54.6517
 20
46.71603
 11
-52.151703
 21
44.21603
  0
LINE
  8
型材断面
  6
CONTINUOUS
 10
-54.6517
 20
-1.307848
 11
-56.895145
 21
-5.193607
  0
LINE
  8
型材断面
  6
CONTINUOUS
 10
-54.6517
 20
-1.307848
 11
-52.408255
 21
-5.193607
  0
LINE
  8
型材断面
  6
CONTINUOUS
 10
-52.408255
 20
-5.193607
 11
-56.895145
 21
-5.193607
  0
LINE
  8
型材断面
  6
CONTINUOUS
 10
-6.627823
 20
46.716033
 11
-2.742062
 21
44.472588
  0
LINE
  8
型材断面
  6
CONTINUOUS
 10
-6.627823
 20
46.716033
 11
-2.742062
 21
48.959477
  0
LINE
  8
型材断面
  6
CONTINUOUS
 10
-2.742062
 20
48.959477
 11
-2.742062
 21
44.472588
  0
LINE
  8
型材断面
  6
CONTINUOUS
 10
-102.675577
 20
46.716033
 11
-106.561337
 21
44.472588
  0
LINE
  8
型材断面
  6
CONTINUOUS
 10
-102.675577
 20
46.716033
 11
-106.561337
 21
48.959477
  0
LINE
  8
型材断面
  6
CONTINUOUS
 10
-106.561337
 20
48.959477
 11
-106.561337
 21
44.472588
  0
LINE
  8
型材断面
  6
CONTINUOUS
 10
19.08162
 20
0.93023
 11
16.838175
 21
-2.95553
  0
LINE
  8
型材断面
  6
CONTINUOUS
 10
19.08162
 20
0.93023
 11
21.325065
 21
-2.95553
  0
LINE
  8
型材断面
  6
CONTINUOUS
 10
21.325065
 20
-2.95553
 11
16.838175
 21
-2.95553
  0
LINE
  8
型材断面
  6
CONTINUOUS
 10
10.04774
 20
-4.363422
 11
62.70442
 21
-4.363422
  0
LINE
  8
型材断面
  6
CONTINUOUS
 10
-52.1517
 20
45.402468
 11
-8.7767
 21
2.027475
  0
LINE
  8
型材断面
  6
CONTINUOUS
 10
-52.151703
 20
44.216033
 11
-8.7767
 21
0.841037
  0
LINE
  8
型材断面
  6
CONTINUOUS
 10
-53.338135
 20
44.21603
 11
-9.96314
 21
0.841037
  0
LINE
  8
型材断面
  6
CONTINUOUS
 10
-8.7767
 20
0.841037
 11
-8.776703
 21
46.71603
  0
LINE
  8
型材断面
  6
CONTINUOUS
 10
-8.7767
 20
0.841037
 11
-54.6517
 21
0.841035
  0
LINE
  8
型材断面
  6
CONTINUOUS
 10
-52.1517
 20
48.029593
 11
-8.7767
 21
91.404585
  0
LINE
  8
型材断面
  6
CONTINUOUS
 10
-52.151703
 20
49.216028
 11
-8.7767
 21
92.591022
  0
LINE
  8
型材断面
  6
CONTINUOUS
 10
-53.338135
 20
49.21603
 11
-9.96314
 21
92.591022
  0
LINE
  8
型材断面
  6
CONTINUOUS
 10
-8.7767
 20
92.591022
 11
-8.776703
 21
46.71603
  0
LINE
  8
型材断面
  6
CONTINUOUS
 10
-8.7767
 20
92.591022
 11
-54.6517
 21
92.591025
  0
LINE
  8
型材断面
  6
CONTINUOUS
 10
-57.1517
 20
48.029593
 11
-100.5267
 21
91.404585
  0
LINE
  8
型材断面
  6
CONTINUOUS
 10
-57.151697
 20
49.216028
 11
-100.5267
 21
92.591022
  0
LINE
  8
型材断面
  6
CONTINUOUS
 10
-55.965265
 20
49.21603
 11
-99.34026
 21
92.591022
  0
LINE
  8
型材断面
  6
CONTINUOUS
 10
-100.5267
 20
92.591022
 11
-100.526697
 21
46.71603
  0
LINE
  8
型材断面
  6
CONTINUOUS
 10
-100.5267
 20
92.591022
 11
-54.6517
 21
92.591025
  0
LINE
  8
型材断面
  6
CONTINUOUS
 10
-57.1517
 20
45.402468
 11
-100.5267
 21
2.027475
  0
LINE
  8
型材断面
  6
CONTINUOUS
 10
-57.151697
 20
44.216033
 11
-100.5267
 21
0.841037
  0
LINE
  8
型材断面
  6
CONTINUOUS
 10
-55.965265
 20
44.21603
 11
-99.34026
 21
0.841037
  0
LINE
  8
型材断面
  6
CONTINUOUS
 10
-100.5267
 20
0.841037
 11
-100.526697
 21
46.71603
  0
LINE
  8
型材断面
  6
CONTINUOUS
 10
-100.5267
 20
0.841037
 11
-54.6517
 21
0.841035
  0
LINE
  8
型材断面
  6
CONTINUOUS
 10
-54.6517
 20
94.739907
 11
-56.895145
 21
98.625668
  0
LINE
  8
型材断面
  6
CONTINUOUS
 10
-54.6517
 20
94.739907
 11
-52.408255
 21
98.625668
  0
LINE
  8
型材断面
  6
CONTINUOUS
 10
-52.408255
 20
98.625668
 11
-56.895145
 21
98.625668
  0
LINE
  8
型材断面
  6
CONTINUOUS
 10
10.04774
 20
-12.54068
 11
62.70442
 21
-12.54068
  0
LINE
  8
型材断面
  6
CONTINUOUS
 10
-8.7767
 20
-86.813382
 11
-8.688403
 21
-86.725085
  0
LINE
  8
型材断面
  6
CONTINUOUS
 10
-54.6517
 20
-86.813382
 11
-8.7767
 21
-86.813382
  0
LINE
  8
型材断面
  6
CONTINUOUS
 62
    47
 10
-54.6517
 20
-90.01338
 11
-8.7767
 21
-90.01338
  0
LINE
  8
型材断面
  6
CONTINUOUS
 62
    47
 10
-8.7767
 20
-86.813382
 11
-8.7767
 21
-90.01338
  0
LINE
  8
型材断面
  6
CONTINUOUS
 62
    47
 10
-9.626703
 20
-90.01338
 11
-9.626703
 21
-90.788382
  0
LINE
  8
型材断面
  6
CONTINUOUS
 62
    47
 10
-54.6517
 20
-90.788382
 11
-9.626703
 21
-90.788382
  0
LINE
  8
型材断面
  6
CONTINUOUS
 10
-52.1517
 20
-43.226397
 11
-53.55738
 21
-43.226397
  0
LINE
  8
型材断面
  6
CONTINUOUS
 10
-54.6517
 20
-42.13208
 11
-53.55738
 21
-43.226397
  0
LINE
  8
型材断面
  6
CONTINUOUS
 10
-54.6517
 20
-40.726397
 11
-52.1517
 21
-43.226397
  0
LINE
  8
型材断面
  6
CONTINUOUS
 10
-9.865635
 20
-86.813382
 11
-53.452615
 21
-43.226397
  0
LINE
  8
型材断面
  6
CONTINUOUS
 10
-8.688403
 20
-86.725085
 11
-52.187087
 21
-43.226397
  0
LINE
  8
型材断面
  6
CONTINUOUS
 10
-100.5267
 20
-86.813382
 11
-100.614998
 21
-86.725085
  0
LINE
  8
型材断面
  6
CONTINUOUS
 10
-54.6517
 20
-86.813382
 11
-100.5267
 21
-86.813382
  0
LINE
  8
型材断面
  6
CONTINUOUS
 62
    47
 10
-54.6517
 20
-90.01338
 11
-100.5267
 21
-90.01338
  0
LINE
  8
型材断面
  6
CONTINUOUS
 62
    47
 10
-100.5267
 20
-86.813382
 11
-100.5267
 21
-90.01338
  0
LINE
  8
型材断面
  6
CONTINUOUS
 62
    47
 10
-99.676697
 20
-90.01338
 11
-99.676697
 21
-90.788382
  0
LINE
  8
型材断面
  6
CONTINUOUS
 62
    47
 10
-54.6517
 20
-90.788382
 11
-99.676697
 21
-90.788382
  0
LINE
  8
型材断面
  6
CONTINUOUS
 10
-57.1517
 20
-43.226397
 11
-55.74602
 21
-43.226397
  0
LINE
  8
型材断面
  6
CONTINUOUS
 10
-54.6517
 20
-42.13208
 11
-55.74602
 21
-43.226397
  0
LINE
  8
型材断面
  6
CONTINUOUS
 10
-54.6517
 20
-40.726397
 11
-57.1517
 21
-43.226397
  0
LINE
  8
型材断面
  6
CONTINUOUS
 10
-99.437765
 20
-86.813382
 11
-55.850785
 21
-43.226397
  0
LINE
  8
型材断面
  6
CONTINUOUS
 10
-100.614998
 20
-86.725085
 11
-57.116313
 21
-43.226397
  0
LINE
  8
型材断面
  6
CONTINUOUS
 10
72.657675
 20
-25.810232
 11
96.589298
 21
-25.810232
  0
LINE
  8
ガラス
  6
CONTINUOUS
 10
-52.838475
 20
-70.46891
 11
-56.71111
 21
-74.341545
  0
LINE
  8
ガラス
  6
CONTINUOUS
 10
-53.718797
 20
-72.067267
 11
-55.112752
 21
-73.461222
  0
LINE
  8
ガラス
  6
CONTINUOUS
 10
-54.436833
 20
-71.349233
 11
-55.830788
 21
-72.743188
  0
LINE
  8
ガラス
  6
CONTINUOUS
 10
-52.3146
 20
20.428475
 11
-56.187235
 21
16.55584
  0
LINE
  8
ガラス
  6
CONTINUOUS
 10
-53.912957
 20
19.548152
 11
-55.306912
 21
18.154198
  0
LINE
  8
ガラス
  6
CONTINUOUS
 10
-52.3146
 20
75.444505
 11
-56.187235
 21
71.57187
  0
LINE
  8
ガラス
  6
CONTINUOUS
 10
-53.912957
 20
74.564183
 11
-55.306912
 21
73.170227
  0
LINE
  8
ガラス
  6
CONTINUOUS
 10
-25.56519
 20
48.53109
 11
-29.437825
 21
44.658455
  0
LINE
  8
ガラス
  6
CONTINUOUS
 10
-27.163548
 20
47.650768
 11
-28.557503
 21
46.256812
  0
LINE
  8
ガラス
  6
CONTINUOUS
 10
-78.890528
 20
48.53109
 11
-82.763162
 21
44.658455
  0
LINE
  8
ガラス
  6
CONTINUOUS
 10
-53.194923
 20
73.846148
 11
-54.588878
 21
72.452192
  0
LINE
  8
ガラス
  6
CONTINUOUS
 10
-26.445513
 20
46.932733
 11
-27.839467
 21
45.538777
  0
LINE
  8
ガラス
  6
CONTINUOUS
 10
-79.77085
 20
46.932733
 11
-81.164805
 21
45.538777
  0
LINE
  8
ガラス
  6
CONTINUOUS
 10
-80.488885
 20
47.650768
 11
-81.88284
 21
46.256812
  0
LINE
  8
ガラス
  6
CONTINUOUS
 10
-53.194923
 20
18.830118
 11
-54.588878
 21
17.436162
  0
LINE
  8
ゴム等
  6
CONTINUOUS
 10
-54.6517
 20
-41.602315
 11
-54.6517
 21
-44.97692
  0
LINE
  8
ゴム等
  6
CONTINUOUS
 10
-54.6517
 20
-41.602315
 11
-54.6517
 21
-44.97692
  0
LINE
  8
ゴム等
  6
CONTINUOUS
 10
-54.6517
 20
-41.602315
 11
-54.6517
 21
-44.97692
  0
LINE
  8
ゴム等
  6
CONTINUOUS
 10
-54.6517
 20
-41.602315
 11
-54.6517
 21
-44.97692
  0
LINE
  8
ゴム等
  6
CONTINUOUS
 10
-54.6517
 20
-41.602315
 11
-54.6517
 21
-44.97692
  0
LINE
  8
ゴム等
  6
CONTINUOUS
 10
-54.6517
 20
-41.602315
 11
-54.6517
 21
-44.97692
  0
LINE
  8
ゴム等
  6
CONTINUOUS
 10
-54.6517
 20
-41.602315
 11
-54.6517
 21
-44.97692
  0
LINE
  8
ゴム等
  6
CONTINUOUS
 10
-54.6517
 20
-41.602315
 11
-54.6517
 21
-44.97692
  0
LINE
  8
ゴム等
  6
CONTINUOUS
 10
-10.968023
 20
6.912422
 11
-10.00748
 21
5.003437
  0
LINE
  8
ゴム等
  6
CONTINUOUS
 10
-10.00748
 20
5.003437
 11
-9.83382
 21
4.72521
  0
LINE
  8
ゴム等
  6
CONTINUOUS
 10
-9.819685
 20
4.644683
 11
-8.7767
 21
2.027475
  0
LINE
  8
ゴム等
  6
CONTINUOUS
 10
-12.939102
 20
2.071815
 11
-12.660875
 21
1.898155
  0
LINE
  8
ゴム等
  6
CONTINUOUS
 10
-50.771633
 20
46.71603
 11
-10.968023
 21
6.912422
  0
LINE
  8
ゴム等
  6
CONTINUOUS
 10
-54.6517
 20
42.835967
 11
-14.848085
 21
3.032358
  0
LINE
  8
ゴム等
  6
CONTINUOUS
 10
-54.6517
 20
43.95537
 11
-12.580347
 21
1.88402
  0
LINE
  8
ゴム等
  6
CONTINUOUS
 10
-14.848085
 20
3.032358
 11
-12.939102
 21
2.071815
  0
LINE
  8
ゴム等
  6
CONTINUOUS
 10
-54.6517
 20
43.78441
 11
-12.939102
 21
2.071815
  0
LINE
  8
ゴム等
  6
CONTINUOUS
 10
-51.720075
 20
46.71603
 11
-10.00748
 21
5.00344
  0
LINE
  8
ゴム等
  6
CONTINUOUS
 10
-51.891035
 20
46.71603
 11
-9.819685
 21
4.644683
  0
LINE
  8
ゴム等
  6
CONTINUOUS
 10
-12.580347
 20
1.88402
 11
-9.96314
 21
0.841037
  0
LINE
  8
ゴム等
  6
CONTINUOUS
 10
-10.968023
 20
6.912422
 11
-10.968025
 21
46.71603
  0
LINE
  8
ゴム等
  6
CONTINUOUS
 10
-9.819685
 20
4.644683
 11
-9.819687
 21
46.71603
  0
LINE
  8
ゴム等
  6
CONTINUOUS
 10
-10.00748
 20
5.003437
 11
-10.007482
 21
46.71603
  0
LINE
  8
ゴム等
  6
CONTINUOUS
 10
-14.848085
 20
3.032358
 11
-54.6517
 21
3.032355
  0
LINE
  8
ゴム等
  6
CONTINUOUS
 10
-12.939102
 20
2.071815
 11
-54.6517
 21
2.071812
  0
LINE
  8
ゴム等
  6
CONTINUOUS
 10
-12.580347
 20
1.88402
 11
-54.6517
 21
1.884017
  0
LINE
  8
ゴム等
  6
CONTINUOUS
 10
-10.968023
 20
86.519637
 11
-10.00748
 21
88.428622
  0
LINE
  8
ゴム等
  6
CONTINUOUS
 10
-10.00748
 20
88.428622
 11
-9.83382
 21
88.70685
  0
LINE
  8
ゴム等
  6
CONTINUOUS
 10
-9.819685
 20
88.787378
 11
-8.7767
 21
91.404585
  0
LINE
  8
ゴム等
  6
CONTINUOUS
 10
-12.939102
 20
91.360245
 11
-12.660875
 21
91.533905
  0
LINE
  8
ゴム等
  6
CONTINUOUS
 10
-50.771633
 20
46.71603
 11
-10.968023
 21
86.519637
  0
LINE
  8
ゴム等
  6
CONTINUOUS
 10
-54.6517
 20
50.596092
 11
-14.848085
 21
90.399703
  0
LINE
  8
ゴム等
  6
CONTINUOUS
 10
-54.6517
 20
49.47669
 11
-12.580347
 21
91.54804
  0
LINE
  8
ゴム等
  6
CONTINUOUS
 10
-14.848085
 20
90.399703
 11
-12.939102
 21
91.360245
  0
LINE
  8
ゴム等
  6
CONTINUOUS
 10
-54.6517
 20
49.64765
 11
-12.939102
 21
91.360245
  0
LINE
  8
ゴム等
  6
CONTINUOUS
 10
-51.720075
 20
46.71603
 11
-10.00748
 21
88.42862
  0
LINE
  8
ゴム等
  6
CONTINUOUS
 10
-51.891035
 20
46.71603
 11
-9.819685
 21
88.787378
  0
LINE
  8
ゴム等
  6
CONTINUOUS
 10
-12.580347
 20
91.54804
 11
-9.96314
 21
92.591022
  0
LINE
  8
ゴム等
  6
CONTINUOUS
 10
-10.968023
 20
86.519637
 11
-10.968025
 21
46.71603
  0
LINE
  8
ゴム等
  6
CONTINUOUS
 10
-9.819685
 20
88.787378
 11
-9.819687
 21
46.71603
  0
LINE
  8
ゴム等
  6
CONTINUOUS
 10
-10.00748
 20
88.428622
 11
-10.007482
 21
46.71603
  0
LINE
  8
ゴム等
  6
CONTINUOUS
 10
-14.848085
 20
90.399703
 11
-54.6517
 21
90.399705
  0
LINE
  8
ゴム等
  6
CONTINUOUS
 10
-12.939102
 20
91.360245
 11
-54.6517
 21
91.360247
  0
LINE
  8
ゴム等
  6
CONTINUOUS
 10
-12.580347
 20
91.54804
 11
-54.6517
 21
91.548042
  0
LINE
  8
ゴム等
  6
CONTINUOUS
 10
-98.335377
 20
86.519637
 11
-99.29592
 21
88.428622
  0
LINE
  8
ゴム等
  6
CONTINUOUS
 10
-99.29592
 20
88.428622
 11
-99.46958
 21
88.70685
  0
LINE
  8
ゴム等
  6
CONTINUOUS
 10
-99.483715
 20
88.787378
 11
-100.5267
 21
91.404585
  0
LINE
  8
ゴム等
  6
CONTINUOUS
 10
-96.364297
 20
91.360245
 11
-96.642525
 21
91.533905
  0
LINE
  8
ゴム等
  6
CONTINUOUS
 10
-58.531768
 20
46.71603
 11
-98.335377
 21
86.519637
  0
LINE
  8
ゴム等
  6
CONTINUOUS
 10
-54.6517
 20
50.596092
 11
-94.455315
 21
90.399703
  0
LINE
  8
ゴム等
  6
CONTINUOUS
 10
-54.6517
 20
49.47669
 11
-96.723052
 21
91.54804
  0
LINE
  8
ゴム等
  6
CONTINUOUS
 10
-94.455315
 20
90.399703
 11
-96.364297
 21
91.360245
  0
LINE
  8
ゴム等
  6
CONTINUOUS
 10
-54.6517
 20
49.64765
 11
-96.364297
 21
91.360245
  0
LINE
  8
ゴム等
  6
CONTINUOUS
 10
-57.583325
 20
46.71603
 11
-99.29592
 21
88.42862
  0
LINE
  8
ゴム等
  6
CONTINUOUS
 10
-57.412365
 20
46.71603
 11
-99.483715
 21
88.787378
  0
LINE
  8
ゴム等
  6
CONTINUOUS
 10
-96.723052
 20
91.54804
 11
-99.34026
 21
92.591022
  0
LINE
  8
ゴム等
  6
CONTINUOUS
 10
-98.335377
 20
86.519637
 11
-98.335375
 21
46.71603
  0
LINE
  8
ゴム等
  6
CONTINUOUS
 10
-99.483715
 20
88.787378
 11
-99.483712
 21
46.71603
  0
LINE
  8
ゴム等
  6
CONTINUOUS
 10
-99.29592
 20
88.428622
 11
-99.295918
 21
46.71603
  0
LINE
  8
ゴム等
  6
CONTINUOUS
 10
-94.455315
 20
90.399703
 11
-54.6517
 21
90.399705
  0
LINE
  8
ゴム等
  6
CONTINUOUS
 10
-96.364297
 20
91.360245
 11
-54.6517
 21
91.360247
  0
LINE
  8
ゴム等
  6
CONTINUOUS
 10
-96.723052
 20
91.54804
 11
-54.6517
 21
91.548042
  0
LINE
  8
ゴム等
  6
CONTINUOUS
 10
-98.335377
 20
6.912422
 11
-99.29592
 21
5.003437
  0
LINE
  8
ゴム等
  6
CONTINUOUS
 10
-99.29592
 20
5.003437
 11
-99.46958
 21
4.72521
  0
LINE
  8
ゴム等
  6
CONTINUOUS
 10
-99.483715
 20
4.644683
 11
-100.5267
 21
2.027475
  0
LINE
  8
ゴム等
  6
CONTINUOUS
 10
-96.364297
 20
2.071815
 11
-96.642525
 21
1.898155
  0
LINE
  8
ゴム等
  6
CONTINUOUS
 10
-58.531768
 20
46.71603
 11
-98.335377
 21
6.912422
  0
LINE
  8
ゴム等
  6
CONTINUOUS
 10
-54.6517
 20
42.835967
 11
-94.455315
 21
3.032358
  0
LINE
  8
ゴム等
  6
CONTINUOUS
 10
-54.6517
 20
43.95537
 11
-96.723052
 21
1.88402
  0
LINE
  8
ゴム等
  6
CONTINUOUS
 10
-94.455315
 20
3.032358
 11
-96.364297
 21
2.071815
  0
LINE
  8
ゴム等
  6
CONTINUOUS
 10
-54.6517
 20
43.78441
 11
-96.364297
 21
2.071815
  0
LINE
  8
ゴム等
  6
CONTINUOUS
 10
-57.583325
 20
46.71603
 11
-99.29592
 21
5.00344
  0
LINE
  8
ゴム等
  6
CONTINUOUS
 10
-57.412365
 20
46.71603
 11
-99.483715
 21
4.644683
  0
LINE
  8
ゴム等
  6
CONTINUOUS
 10
-96.723052
 20
1.88402
 11
-99.34026
 21
0.841037
  0
LINE
  8
ゴム等
  6
CONTINUOUS
 10
-98.335377
 20
6.912422
 11
-98.335375
 21
46.71603
  0
LINE
  8
ゴム等
  6
CONTINUOUS
 10
-99.483715
 20
4.644683
 11
-99.483712
 21
46.71603
  0
LINE
  8
ゴム等
  6
CONTINUOUS
 10
-99.29592
 20
5.003437
 11
-99.295918
 21
46.71603
  0
LINE
  8
ゴム等
  6
CONTINUOUS
 10
-94.455315
 20
3.032358
 11
-54.6517
 21
3.032355
  0
LINE
  8
ゴム等
  6
CONTINUOUS
 10
-96.364297
 20
2.071815
 11
-54.6517
 21
2.071812
  0
LINE
  8
ゴム等
  6
CONTINUOUS
 10
-96.723052
 20
1.88402
 11
-54.6517
 21
1.884017
  0
LINE
  8
ゴム等
  6
CONTINUOUS
 10
-14.899997
 20
-85.153625
 11
-12.93925
 21
-85.65747
  0
LINE
  8
ゴム等
  6
CONTINUOUS
 10
-12.93925
 20
-85.65747
 11
-12.580477
 21
-85.73505
  0
LINE
  8
ゴム等
  6
CONTINUOUS
 10
-12.580477
 20
-85.73505
 11
-9.865635
 21
-86.813382
  0
LINE
  8
ゴム等
  6
CONTINUOUS
 10
-54.6517
 20
-85.153625
 11
-14.899997
 21
-85.153625
  0
LINE
  8
ゴム等
  6
CONTINUOUS
 10
-54.6517
 20
-85.65747
 11
-12.93925
 21
-85.65747
  0
LINE
  8
ゴム等
  6
CONTINUOUS
 10
-54.6517
 20
-85.73505
 11
-12.637342
 21
-85.73505
  0
LINE
  8
ゴム等
  6
CONTINUOUS
 10
-12.93925
 20
-85.65747
 11
-54.6517
 21
-43.945017
  0
LINE
  8
ゴム等
  6
CONTINUOUS
 10
-12.580477
 20
-85.73505
 11
-54.6517
 21
-43.663825
  0
LINE
  8
ゴム等
  6
CONTINUOUS
 10
-14.899997
 20
-85.153625
 11
-54.6517
 21
-45.40192
  0
LINE
  8
ゴム等
  6
CONTINUOUS
 10
-54.6517
 20
-41.602315
 11
-54.6517
 21
-44.97692
  0
LINE
  8
ゴム等
  6
CONTINUOUS
 10
-54.6517
 20
-41.602315
 11
-54.6517
 21
-44.97692
  0
LINE
  8
ゴム等
  6
CONTINUOUS
 10
-54.6517
 20
-41.602315
 11
-54.6517
 21
-44.97692
  0
LINE
  8
ゴム等
  6
CONTINUOUS
 10
-54.6517
 20
-41.602315
 11
-54.6517
 21
-44.97692
  0
LINE
  8
ゴム等
  6
CONTINUOUS
 10
-54.6517
 20
-41.602315
 11
-54.6517
 21
-44.97692
  0
LINE
  8
ゴム等
  6
CONTINUOUS
 10
-54.6517
 20
-41.602315
 11
-54.6517
 21
-44.97692
  0
LINE
  8
ゴム等
  6
CONTINUOUS
 10
-54.6517
 20
-41.602315
 11
-54.6517
 21
-44.97692
  0
LINE
  8
ゴム等
  6
CONTINUOUS
 10
-54.6517
 20
-41.602315
 11
-54.6517
 21
-44.97692
  0
LINE
  8
ゴム等
  6
CONTINUOUS
 10
-94.403402
 20
-85.153625
 11
-96.36415
 21
-85.65747
  0
LINE
  8
ゴム等
  6
CONTINUOUS
 10
-96.36415
 20
-85.65747
 11
-96.722923
 21
-85.73505
  0
LINE
  8
ゴム等
  6
CONTINUOUS
 10
-96.722923
 20
-85.73505
 11
-99.437765
 21
-86.813382
  0
LINE
  8
ゴム等
  6
CONTINUOUS
 10
-54.6517
 20
-85.153625
 11
-94.403402
 21
-85.153625
  0
LINE
  8
ゴム等
  6
CONTINUOUS
 10
-54.6517
 20
-85.65747
 11
-96.36415
 21
-85.65747
  0
LINE
  8
ゴム等
  6
CONTINUOUS
 10
-54.6517
 20
-85.73505
 11
-96.666057
 21
-85.73505
  0
LINE
  8
ゴム等
  6
CONTINUOUS
 10
-96.36415
 20
-85.65747
 11
-54.6517
 21
-43.945017
  0
LINE
  8
ゴム等
  6
CONTINUOUS
 10
-96.722923
 20
-85.73505
 11
-54.6517
 21
-43.663825
  0
LINE
  8
ゴム等
  6
CONTINUOUS
 10
-94.403402
 20
-85.153625
 11
-54.6517
 21
-45.40192
  0
TEXT
  7
TextStyle03
  8
文字
  6
CONTINUOUS
 10
23.35
 20
-2.625
  1
は排水穴位置を示す
 40
3.0
 72
     5
 11
53.35
 21
-2.625
  0
TEXT
  7
TextStyle03
  8
文字
  6
CONTINUOUS
 10
17.75
 20
-11.15
  1
アンカー数量　１０ヶ所
 40
3.0
 72
     5
 11
54.5
 21
-11.15
  0
TEXT
  7
TextStyle03
  8
文字
  6
CONTINUOUS
 10
-126.925
 20
3.625
  1
アンカーピッチ
 40
3.0
 50
90.0
 72
     5
 11
-126.925
 21
26.875
  0
TEXT
  7
TextStyle03
  8
文字
  6
CONTINUOUS
 10
-114.9
 20
119.65
  1
アンカーピッチ
 40
3.0
 72
     5
 11
-91.65
 21
119.65
  0
TEXT
  7
TextStyle03
  8
文字
  6
CONTINUOUS
 10
127.35
 20
-74.325
  1
×４枚
 40
3.0
 72
     5
 11
137.1
 21
-74.325
  0
TEXT
  7
TextStyle03
  8
文字
  6
CONTINUOUS
 10
76.25
 20
-24.6
  1
ガラス寸法
 40
3.0
 72
     5
 11
92.75
 21
-24.6
  0
TEXT
  7
TextStyle03
  8
文字
  6
CONTINUOUS
 10
75.525
 20
94.725
  1
ＮＳコード：ＮＳ４ＧＫ
 40
5.0
 72
     5
 11
136.775
 21
94.725
  0
TEXT
  7
TextStyle03
  8
文字
  6
CONTINUOUS
 10
75.575
 20
116.725
  1
シリーズ：ＤＦ４Ｋ
 40
5.0
 72
     5
 11
125.575
 21
116.725
  0
TEXT
  7
TextStyle03
  8
文字
  6
CONTINUOUS
 10
75.575
 20
111.1
  1
　　　　　四角錘（固定）1600×1600タイプ
 40
5.0
 72
     5
 11
187.45
 21
111.1
  0
TEXT
  7
TextStyle03
  8
文字
  6
CONTINUOUS
 10
75.575
 20
105.475
  1
図面名　：外観姿図
 40
5.0
 72
     5
 11
125.575
 21
105.475
  0
TEXT
  7
TextStyle03
  8
文字
  6
CONTINUOUS
 10
75.575
 20
99.85
  1
　　　　　　
 40
5.0
 72
     5
 11
108.7
 21
99.85
  0
INSERT
  2
*DIM_0002
  8
寸法
  6
CONTINUOUS
 10
0.0
 20
0.0
  0
INSERT
  2
*DIM_0003
  8
寸法
  6
CONTINUOUS
 10
0.0
 20
0.0
  0
INSERT
  2
*DIM_0004
  8
寸法
  6
CONTINUOUS
 10
0.0
 20
0.0
  0
INSERT
  2
*DIM_0005
  8
寸法
  6
CONTINUOUS
 10
0.0
 20
0.0
  0
INSERT
  2
*DIM_0006
  8
寸法
  6
CONTINUOUS
 10
0.0
 20
0.0
  0
INSERT
  2
*DIM_0007
  8
寸法
  6
CONTINUOUS
 10
0.0
 20
0.0
  0
INSERT
  2
*DIM_0008
  8
寸法
  6
CONTINUOUS
 10
0.0
 20
0.0
  0
INSERT
  2
*DIM_0009
  8
寸法
  6
CONTINUOUS
 10
0.0
 20
0.0
  0
INSERT
  2
*DIM_0010
  8
寸法
  6
CONTINUOUS
 10
0.0
 20
0.0
  0
INSERT
  2
*DIM_0011
  8
寸法
  6
CONTINUOUS
 10
0.0
 20
0.0
  0
INSERT
  2
*DIM_0012
  8
寸法
  6
CONTINUOUS
 10
0.0
 20
0.0
  0
INSERT
  2
*DIM_0013
  8
寸法
  6
CONTINUOUS
 10
0.0
 20
0.0
  0
INSERT
  2
*DIM_0014
  8
寸法
  6
CONTINUOUS
 10
0.0
 20
0.0
  0
LINE
  8
曲げ物
  6
CONTINUOUS
 10
149.378162
 20
-77.399633
 11
66.883165
 21
-77.399633
  0
LINE
  8
曲げ物
  6
CONTINUOUS
 10
66.883165
 20
-77.399633
 11
108.130662
 21
-19.067105
  0
LINE
  8
曲げ物
  6
CONTINUOUS
 10
149.378162
 20
-77.399633
 11
108.130662
 21
-19.067105
  0
ENDSEC
  0
EOF
